  0
SECTION
  2
HEADER
  9
$ACADVER
  1
AC1015
  9
$ACADMAINTVER
 70
    20
  9
$DWGCODEPAGE
  3
ANSI_1250
  9
$INSBASE
 10
0.0
 20
0.0
 30
0.0
  9
$EXTMIN
 10
474508.0772977811
 20
620628.2441766928
 30
0.0
  9
$EXTMAX
 10
475694.6646937382
 20
622308.2441766928
 30
0.0
  9
$LIMMIN
 10
0.0
 20
0.0
  9
$LIMMAX
 10
12.0
 20
9.0
  9
$ORTHOMODE
 70
     0
  9
$REGENMODE
 70
     1
  9
$FILLMODE
 70
     1
  9
$QTEXTMODE
 70
     0
  9
$MIRRTEXT
 70
     0
  9
$LTSCALE
 40
2.0
  9
$ATTMODE
 70
     1
  9
$TEXTSIZE
 40
0.2
  9
$TRACEWID
 40
0.05
  9
$TEXTSTYLE
  7
Standard
  9
$CLAYER
  8
0
  9
$CELTYPE
  6
ByLayer
  9
$CECOLOR
 62
   256
  9
$CELTSCALE
 40
1.0
  9
$DISPSILH
 70
     0
  9
$DIMSCALE
 40
2.0
  9
$DIMASZ
 40
1.199999999999999
  9
$DIMEXO
 40
0.5
  9
$DIMDLI
 40
0.38
  9
$DIMRND
 40
0.0
  9
$DIMDLE
 40
0.0
  9
$DIMEXE
 40
0.5
  9
$DIMTP
 40
0.0
  9
$DIMTM
 40
0.0
  9
$DIMTXT
 40
1.0
  9
$DIMCEN
 40
0.09
  9
$DIMTSZ
 40
0.0
  9
$DIMTOL
 70
     0
  9
$DIMLIM
 70
     0
  9
$DIMTIH
 70
     0
  9
$DIMTOH
 70
     0
  9
$DIMSE1
 70
     1
  9
$DIMSE2
 70
     1
  9
$DIMTAD
 70
     0
  9
$DIMZIN
 70
     0
  9
$DIMBLK
  1

  9
$DIMASO
 70
     1
  9
$DIMSHO
 70
     1
  9
$DIMPOST
  1
m
  9
$DIMAPOST
  1

  9
$DIMALT
 70
     0
  9
$DIMALTD
 70
     2
  9
$DIMALTF
 40
25.4
  9
$DIMLFAC
 40
1.0
  9
$DIMTOFL
 70
     0
  9
$DIMTVP
 40
0.0
  9
$DIMTIX
 70
     1
  9
$DIMSOXD
 70
     0
  9
$DIMSAH
 70
     0
  9
$DIMBLK1
  1

  9
$DIMBLK2
  1

  9
$DIMSTYLE
  2
Standard
  9
$DIMCLRD
 70
     0
  9
$DIMCLRE
 70
     0
  9
$DIMCLRT
 70
     0
  9
$DIMTFAC
 40
1.0
  9
$DIMGAP
 40
0.5
  9
$DIMJUST
 70
     0
  9
$DIMSD1
 70
     1
  9
$DIMSD2
 70
     1
  9
$DIMTOLJ
 70
     1
  9
$DIMTZIN
 70
     0
  9
$DIMALTZ
 70
     0
  9
$DIMALTTZ
 70
     0
  9
$DIMUPT
 70
     0
  9
$DIMDEC
 70
     2
  9
$DIMTDEC
 70
     4
  9
$DIMALTU
 70
     2
  9
$DIMALTTD
 70
     2
  9
$DIMTXSTY
  7
ROMAND
  9
$DIMAUNIT
 70
     2
  9
$DIMADEC
 70
     4
  9
$DIMALTRND
 40
0.0
  9
$DIMAZIN
 70
     0
  9
$DIMDSEP
 70
    46
  9
$DIMATFIT
 70
     3
  9
$DIMFRAC
 70
     0
  9
$DIMLDRBLK
  1

  9
$DIMLUNIT
 70
     2
  9
$DIMLWD
 70
    -2
  9
$DIMLWE
 70
    -2
  9
$DIMTMOVE
 70
     0
  9
$LUNITS
 70
     2
  9
$LUPREC
 70
     3
  9
$SKETCHINC
 40
0.1
  9
$FILLETRAD
 40
0.0
  9
$AUNITS
 70
     2
  9
$AUPREC
 70
     4
  9
$MENU
  1
.
  9
$ELEVATION
 40
0.0
  9
$PELEVATION
 40
0.0
  9
$THICKNESS
 40
0.0
  9
$LIMCHECK
 70
     0
  9
$CHAMFERA
 40
0.0
  9
$CHAMFERB
 40
0.0
  9
$CHAMFERC
 40
0.0
  9
$CHAMFERD
 40
0.0
  9
$SKPOLY
 70
     0
  9
$TDCREATE
 40
2460230.042642709
  9
$TDUCREATE
 40
2460229.959309375
  9
$TDUPDATE
 40
2460251.080578681
  9
$TDUUPDATE
 40
2460250.997245347
  9
$TDINDWG
 40
0.0211514583
  9
$TDUSRTIMER
 40
0.0211509259
  9
$USRTIMER
 70
     1
  9
$ANGBASE
 50
90.0
  9
$ANGDIR
 70
     1
  9
$PDMODE
 70
    32
  9
$PDSIZE
 40
1.0
  9
$PLINEWID
 40
0.0
  9
$SPLFRAME
 70
     0
  9
$SPLINETYPE
 70
     6
  9
$SPLINESEGS
 70
     8
  9
$HANDSEED
  5
6C6
  9
$SURFTAB1
 70
     6
  9
$SURFTAB2
 70
     6
  9
$SURFTYPE
 70
     6
  9
$SURFU
 70
     6
  9
$SURFV
 70
     6
  9
$UCSBASE
  2

  9
$UCSNAME
  2

  9
$UCSORG
 10
0.0
 20
0.0
 30
0.0
  9
$UCSXDIR
 10
1.0
 20
0.0
 30
0.0
  9
$UCSYDIR
 10
0.0
 20
1.0
 30
0.0
  9
$UCSORTHOREF
  2

  9
$UCSORTHOVIEW
 70
     0
  9
$UCSORGTOP
 10
0.0
 20
0.0
 30
0.0
  9
$UCSORGBOTTOM
 10
0.0
 20
0.0
 30
0.0
  9
$UCSORGLEFT
 10
0.0
 20
0.0
 30
0.0
  9
$UCSORGRIGHT
 10
0.0
 20
0.0
 30
0.0
  9
$UCSORGFRONT
 10
0.0
 20
0.0
 30
0.0
  9
$UCSORGBACK
 10
0.0
 20
0.0
 30
0.0
  9
$PUCSBASE
  2

  9
$PUCSNAME
  2

  9
$PUCSORG
 10
0.0
 20
0.0
 30
0.0
  9
$PUCSXDIR
 10
1.0
 20
0.0
 30
0.0
  9
$PUCSYDIR
 10
0.0
 20
1.0
 30
0.0
  9
$PUCSORTHOREF
  2

  9
$PUCSORTHOVIEW
 70
     0
  9
$PUCSORGTOP
 10
0.0
 20
0.0
 30
0.0
  9
$PUCSORGBOTTOM
 10
0.0
 20
0.0
 30
0.0
  9
$PUCSORGLEFT
 10
0.0
 20
0.0
 30
0.0
  9
$PUCSORGRIGHT
 10
0.0
 20
0.0
 30
0.0
  9
$PUCSORGFRONT
 10
0.0
 20
0.0
 30
0.0
  9
$PUCSORGBACK
 10
0.0
 20
0.0
 30
0.0
  9
$USERI1
 70
     0
  9
$USERI2
 70
     0
  9
$USERI3
 70
     0
  9
$USERI4
 70
     0
  9
$USERI5
 70
     0
  9
$USERR1
 40
0.0
  9
$USERR2
 40
0.0
  9
$USERR3
 40
0.0
  9
$USERR4
 40
0.0
  9
$USERR5
 40
0.0
  9
$WORLDVIEW
 70
     1
  9
$SHADEDGE
 70
     3
  9
$SHADEDIF
 70
    70
  9
$TILEMODE
 70
     1
  9
$MAXACTVP
 70
    64
  9
$PINSBASE
 10
0.0
 20
0.0
 30
0.0
  9
$PLIMCHECK
 70
     0
  9
$PEXTMIN
 10
0.0
 20
0.0
 30
0.0
  9
$PEXTMAX
 10
0.0
 20
0.0
 30
0.0
  9
$PLIMMIN
 10
0.0
 20
0.0
  9
$PLIMMAX
 10
12.0
 20
9.0
  9
$UNITMODE
 70
     0
  9
$VISRETAIN
 70
     1
  9
$PLINEGEN
 70
     0
  9
$PSLTSCALE
 70
     1
  9
$TREEDEPTH
 70
  3020
  9
$CMLSTYLE
  2
Standard
  9
$CMLJUST
 70
     0
  9
$CMLSCALE
 40
1.0
  9
$PROXYGRAPHICS
 70
     1
  9
$MEASUREMENT
 70
     0
  9
$CELWEIGHT
370
    -1
  9
$ENDCAPS
280
     0
  9
$JOINSTYLE
280
     0
  9
$LWDISPLAY
290
     0
  9
$INSUNITS
 70
     1
  9
$HYPERLINKBASE
  1

  9
$STYLESHEET
  1

  9
$XEDIT
290
     1
  9
$CEPSNTYPE
380
     0
  9
$PSTYLEMODE
290
     1
  9
$FINGERPRINTGUID
  2
{768A340C-AD4F-41F3-9101-F32015F89487}
  9
$VERSIONGUID
  2
{6315F1C7-3DFE-41F6-A9B2-FE69AB952F02}
  9
$EXTNAMES
290
     1
  9
$PSVPSCALE
 40
0.0
  9
$OLESTARTUP
290
     0
  0
ENDSEC
  0
SECTION
  2
CLASSES
  0
CLASS
  1
ACDBDICTIONARYWDFLT
  2
AcDbDictionaryWithDefault
  3
ObjectDBX Classes
 90
        0
280
     0
281
     0
  0
CLASS
  1
ACDBPLACEHOLDER
  2
AcDbPlaceHolder
  3
ObjectDBX Classes
 90
        0
280
     0
281
     0
  0
CLASS
  1
LAYOUT
  2
AcDbLayout
  3
ObjectDBX Classes
 90
        0
280
     0
281
     0
  0
CLASS
  1
DICTIONARYVAR
  2
AcDbDictionaryVar
  3
ObjectDBX Classes
 90
        0
280
     0
281
     0
  0
CLASS
  1
TABLESTYLE
  2
AcDbTableStyle
  3
ObjectDBX Classes
 90
     4095
280
     0
281
     0
  0
CLASS
  1
MATERIAL
  2
AcDbMaterial
  3
ObjectDBX Classes
 90
     1024
280
     0
281
     0
  0
CLASS
  1
VISUALSTYLE
  2
AcDbVisualStyle
  3
ObjectDBX Classes
 90
     4095
280
     0
281
     0
  0
CLASS
  1
SORTENTSTABLE
  2
AcDbSortentsTable
  3
ObjectDBX Classes
 90
        0
280
     0
281
     0
  0
CLASS
  1
RASTERVARIABLES
  2
AcDbRasterVariables
  3
ISM
 90
        0
280
     0
281
     0
  0
ENDSEC
  0
SECTION
  2
TABLES
  0
TABLE
  2
VPORT
  5
8
330
0
100
AcDbSymbolTable
 70
     1
  0
VPORT
  5
94
330
8
100
AcDbSymbolTableRecord
100
AcDbViewportTableRecord
  2
*Active
 70
     0
 10
0.0
 20
0.0
 11
1.0
 21
1.0
 12
475239.2182497318
 22
621646.6228549863
 13
0.0
 23
0.0
 14
0.5
 24
0.5
 15
0.5
 25
0.5
 16
0.0
 26
0.0
 36
1.0
 17
0.0
 27
0.0
 37
0.0
 40
2028.969841437113
 41
1.791158536585365
 42
50.0
 43
0.0
 44
0.0
 50
0.0
 51
0.0
 71
     0
 72
  1000
 73
     1
 74
     3
 75
     0
 76
     0
 77
     0
 78
     0
281
     0
 65
     0
110
0.0
120
0.0
130
0.0
111
1.0
121
0.0
131
0.0
112
0.0
122
1.0
132
0.0
 79
     0
146
0.0
  0
ENDTAB
  0
TABLE
  2
LTYPE
  5
5
330
0
100
AcDbSymbolTable
 70
    34
  0
LTYPE
  5
14
330
5
100
AcDbSymbolTableRecord
100
AcDbLinetypeTableRecord
  2
ByBlock
 70
     0
  3

 72
    65
 73
     0
 40
0.0
  0
LTYPE
  5
15
330
5
100
AcDbSymbolTableRecord
100
AcDbLinetypeTableRecord
  2
ByLayer
 70
     0
  3

 72
    65
 73
     0
 40
0.0
  0
LTYPE
  5
16
330
5
100
AcDbSymbolTableRecord
100
AcDbLinetypeTableRecord
  2
Continuous
 70
     0
  3
Solid line
 72
    65
 73
     0
 40
0.0
  0
LTYPE
  5
44B
330
5
100
AcDbSymbolTableRecord
100
AcDbLinetypeTableRecord
  2
DASHED
 70
     0
  3
__ __ __ __ __ __ __ __ __ __ __ __ __ __ __
 72
    65
 73
     2
 40
0.75
 49
0.5
 74
     0
 49
-0.25
 74
     0
  0
LTYPE
  5
4A3
330
5
100
AcDbSymbolTableRecord
100
AcDbLinetypeTableRecord
  2
LINPROP
 70
     0
  3
Limita proprietate ____ . . . . . ____ . . . . 
 72
    65
 73
    10
 40
9.0
 49
4.0
 74
     0
 49
-0.5200000000000001
 74
     0
 49
0.6
 74
     0
 49
-0.5200000000000001
 74
     0
 49
0.6
 74
     0
 49
-0.5200000000000001
 74
     0
 49
0.6
 74
     0
 49
-0.5200000000000001
 74
     0
 49
0.6
 74
     0
 49
-0.5200000000000001
 74
     0
  0
LTYPE
  5
4A4
330
5
100
AcDbSymbolTableRecord
100
AcDbLinetypeTableRecord
  2
LSECT
 70
     0
  3
Linie sectiune - - - - - - - - - - - -
 72
    65
 73
     2
 40
1.25
 49
0.5
 74
     0
 49
-0.75
 74
     0
  0
LTYPE
  5
4A5
330
5
100
AcDbSymbolTableRecord
100
AcDbLinetypeTableRecord
  2
LINPCT
 70
     0
  3
Linie punctata . . . . . . . . . . . . .
 72
    65
 73
     2
 40
1.0
 49
0.2
 74
     0
 49
-0.8
 74
     0
  0
LTYPE
  5
4A8
330
5
100
AcDbSymbolTableRecord
100
AcDbLinetypeTableRecord
  2
LinPdTuf
 70
     0
  3
Linie padure tufaris 0    0    0  Pdt  0    0  
 72
    65
 73
     3
 40
2.0
 49
0.0
 74
     0
 49
-0.4
 74
     4
 75
   146
340
4A7
 46
0.4
 50
0.0
 44
-0.4
 45
0.0
 49
-1.6
 74
     0
  0
LTYPE
  5
4A9
330
5
100
AcDbSymbolTableRecord
100
AcDbLinetypeTableRecord
  2
LCONSTRSUB
 70
     0
  3
Linie constr. subterana --- --- --- --- --- ---
 72
    65
 73
     2
 40
4.0
 49
3.0
 74
     0
 49
-1.0
 74
     0
  0
LTYPE
  5
4AA
330
5
100
AcDbSymbolTableRecord
100
AcDbLinetypeTableRecord
  2
GRDLEMN_ST
 70
     0
  3
Gard lemn st. ____|____|____|____|____
 72
    65
 73
     2
 40
6.0
 49
3.0
 74
     4
 75
   139
340
4A7
 46
1.0
 50
180.0
 44
0.0
 45
0.0
 49
3.0
 74
     0
  0
LTYPE
  5
4AB
330
5
100
AcDbSymbolTableRecord
100
AcDbLinetypeTableRecord
  2
GRDPL
 70
     0
  3
Gard plasa ----^ ----v----^ ----v----^ ----v----
 72
    65
 73
     3
 40
12.0
 49
3.0
 74
     4
 75
   138
340
4A7
 46
0.71
 50
0.0
 44
0.0
 45
0.0
 49
6.0
 74
     4
 75
   138
340
4A7
 46
0.71
 50
180.0
 44
0.0
 45
0.0
 49
3.0
 74
     0
  0
LTYPE
  5
4AC
330
5
100
AcDbSymbolTableRecord
100
AcDbLinetypeTableRecord
  2
GRDBET_ST
 70
     0
  3
Gard beton dr. |====|====|====|====|====
 72
    65
 73
     2
 40
5.000000001
 49
0.000000001
 74
     4
 75
   142
340
4A7
 46
1.0
 50
0.0
 44
0.0
 45
0.0
 49
5.0
 74
     0
  0
LTYPE
  5
4AD
330
5
100
AcDbSymbolTableRecord
100
AcDbLinetypeTableRecord
  2
GRDMET
 70
     0
  3
Gard metalic ----#----#----#----#----#----#----
 72
    65
 73
     2
 40
6.0
 49
3.0
 74
     4
 75
   135
340
4A7
 46
0.09375
 50
0.0
 44
0.0
 45
0.0
 49
3.0
 74
     0
  0
LTYPE
  5
4AE
330
5
100
AcDbSymbolTableRecord
100
AcDbLinetypeTableRecord
  2
GRDZIDMET_ST
 70
     0
  3
Gard zid.+met.st. ____#____#____#____#____
 72
    65
 73
     2
 40
6.000000001
 49
0.000000001
 74
     4
 75
   135
340
4A7
 46
0.125
 50
0.0
 44
0.0
 45
-0.5
 49
6.0
 74
     0
  0
LTYPE
  5
4AF
330
5
100
AcDbSymbolTableRecord
100
AcDbLinetypeTableRecord
  2
GRDGHIMP
 70
     0
  3
Gard sarma ghimp. ----X----X----X----X----X---X
 72
    65
 73
     3
 40
6.0
 49
3.0
 74
     4
 75
   138
340
4A7
 46
0.71
 50
0.0
 44
0.0
 45
0.0
 49
0.0
 74
     4
 75
   138
340
4A7
 46
0.71
 50
180.0
 44
0.0
 45
0.0
 49
3.0
 74
     0
  0
LTYPE
  5
4B0
330
5
100
AcDbSymbolTableRecord
100
AcDbLinetypeTableRecord
  2
LAX
 70
     0
  3
Linie ax ---- . ---- . ---- . ---- . ----
 72
    65
 73
     4
 40
5.299999999999998
 49
3.0
 74
     0
 49
-1.0
 74
     0
 49
0.3
 74
     0
 49
-1.0
 74
     0
  0
LTYPE
  5
4B1
330
5
100
AcDbSymbolTableRecord
100
AcDbLinetypeTableRecord
  2
CF
 70
     0
  3
Linie CF ______||______||_______||______
 72
    65
 73
     2
 40
10.0
 49
5.0
 74
     4
 75
   137
340
4A7
 46
0.25
 50
0.0
 44
0.0
 45
0.0
 49
5.0
 74
     0
  0
LTYPE
  5
4B2
330
5
100
AcDbSymbolTableRecord
100
AcDbLinetypeTableRecord
  2
TRAMVAI
 70
     0
  3
Linie tramvai ______o______o______o______
 72
    65
 73
     2
 40
10.0
 49
5.0
 74
     4
 75
   141
340
4A7
 46
0.25
 50
0.0
 44
0.0
 45
1.5
 49
5.0
 74
     0
  0
LTYPE
  5
4B3
330
5
100
AcDbSymbolTableRecord
100
AcDbLinetypeTableRecord
  2
GRDLEMN_DR
 70
     0
  3
Gard lemn dr. ~~~~|~~~~|~~~~|~~~~|~~~~
 72
    65
 73
     2
 40
6.0
 49
3.0
 74
     4
 75
   139
340
4A7
 46
1.0
 50
0.0
 44
0.0
 45
0.0
 49
3.0
 74
     0
  0
LTYPE
  5
4B4
330
5
100
AcDbSymbolTableRecord
100
AcDbLinetypeTableRecord
  2
GRDBET_DR
 70
     0
  3
Gard beton st. |====|====|====|====|====
 72
    65
 73
     2
 40
5.000000001
 49
0.000000001
 74
     4
 75
   143
340
4A7
 46
1.0
 50
0.0
 44
0.0
 45
0.0
 49
5.0
 74
     0
  0
LTYPE
  5
4B5
330
5
100
AcDbSymbolTableRecord
100
AcDbLinetypeTableRecord
  2
GRDZIDMET_DR
 70
     0
  3
Gard zid.+met.dr. ~~~~#~~~~#~~~~#~~~~#~~~~
 72
    65
 73
     2
 40
6.000000001
 49
0.000000001
 74
     4
 75
   135
340
4A7
 46
0.125
 50
0.0
 44
0.0
 45
0.5
 49
6.0
 74
     0
  0
LTYPE
  5
4B6
330
5
100
AcDbSymbolTableRecord
100
AcDbLinetypeTableRecord
  2
TALMIC_ST
 70
     0
  3
Taluz mic st. __,__|__,__|__,__|__
 72
    65
 73
     2
 40
4.0
 49
2.0
 74
     4
 75
   139
340
4A7
 46
4.0
 50
180.0
 44
0.0
 45
0.0
 49
2.0
 74
     4
 75
   139
340
4A7
 46
2.0
 50
180.0
 44
0.0
 45
0.0
  0
LTYPE
  5
4B7
330
5
100
AcDbSymbolTableRecord
100
AcDbLinetypeTableRecord
  2
TALMIC_DR
 70
     0
  3
Taluz mic dr. ~~'~~|~~'~~|~~'~~|~~
 72
    65
 73
     2
 40
4.0
 49
2.0
 74
     4
 75
   139
340
4A7
 46
4.0
 50
0.0
 44
0.0
 45
0.0
 49
2.0
 74
     4
 75
   139
340
4A7
 46
2.0
 50
0.0
 44
0.0
 45
0.0
  0
LTYPE
  5
4B8
330
5
100
AcDbSymbolTableRecord
100
AcDbLinetypeTableRecord
  2
TALMARE_ST
 70
     0
  3
Taluz mare st. ____,____|____,____|____
 72
    65
 73
     2
 40
6.0
 49
3.0
 74
     4
 75
   139
340
4A7
 46
6.0
 50
180.0
 44
0.0
 45
0.0
 49
3.0
 74
     4
 75
   139
340
4A7
 46
2.0
 50
180.0
 44
0.0
 45
0.0
  0
LTYPE
  5
4B9
330
5
100
AcDbSymbolTableRecord
100
AcDbLinetypeTableRecord
  2
TALMARE_DR
 70
     0
  3
Taluz mare dr. ~~~~'~~~~|~~~~'~~~~|~~~~
 72
    65
 73
     2
 40
6.0
 49
3.0
 74
     4
 75
   139
340
4A7
 46
6.0
 50
0.0
 44
0.0
 45
0.0
 49
3.0
 74
     4
 75
   139
340
4A7
 46
2.0
 50
0.0
 44
0.0
 45
0.0
  0
LTYPE
  5
4BA
330
5
100
AcDbSymbolTableRecord
100
AcDbLinetypeTableRecord
  2
TALUNIF_ST
 70
     0
  3
Taluz uniform st. ____|____|____|____|____
 72
    65
 73
     2
 40
4.0
 49
2.0
 74
     4
 75
   139
340
4A7
 46
2.0
 50
180.0
 44
0.0
 45
0.0
 49
2.0
 74
     4
 75
   139
340
4A7
 46
2.0
 50
180.0
 44
0.0
 45
0.0
  0
LTYPE
  5
4BB
330
5
100
AcDbSymbolTableRecord
100
AcDbLinetypeTableRecord
  2
TALUNIF_DR
 70
     0
  3
Taluz uniform dr. ~~~~|~~~~|~~~~|~~~~|~~~~
 72
    65
 73
     2
 40
4.0
 49
2.0
 74
     4
 75
   139
340
4A7
 46
2.0
 50
0.0
 44
0.0
 45
0.0
 49
2.0
 74
     4
 75
   139
340
4A7
 46
2.0
 50
0.0
 44
0.0
 45
0.0
  0
LTYPE
  5
4BC
330
5
100
AcDbSymbolTableRecord
100
AcDbLinetypeTableRecord
  2
GPL
 70
     0
  3
Linie GPL --------GPL--------GPL--------GPL----
 72
    65
 73
     3
 40
24.0
 49
15.0
 74
     0
 49
-4.0
 74
     2
 75
     0
340
168
 46
2.0
 50
0.0
 44
-2.0
 45
-1.0
  9
GPL
 49
-5.0
 74
     0
  0
LTYPE
  5
4BD
330
5
100
AcDbSymbolTableRecord
100
AcDbLinetypeTableRecord
  2
GAZ
 70
     0
  3
Linie GAZ --------GAZ--------GAZ--------GAZ----
 72
    65
 73
     3
 40
24.0
 49
15.0
 74
     0
 49
-4.0
 74
     2
 75
     0
340
168
 46
2.0
 50
0.0
 44
-2.0
 45
-1.0
  9
GAZ
 49
-5.0
 74
     0
  0
LTYPE
  5
4BE
330
5
100
AcDbSymbolTableRecord
100
AcDbLinetypeTableRecord
  2
CONDSUBT
 70
     0
  3
Conducta subterana --- [] --- [] --- [] ---
 72
    65
 73
     5
 40
13.0
 49
4.0
 74
     0
 49
-1.5
 74
     4
 75
   135
340
4A7
 46
0.1875
 50
45.0
 44
-0.5200000000000001
 45
-0.5300000000000002
 49
-1.5
 74
     0
 49
4.0
 74
     0
 49
-2.0
 74
     0
  0
LTYPE
  5
4BF
330
5
100
AcDbSymbolTableRecord
100
AcDbLinetypeTableRecord
  2
CONDSUPRA
 70
     0
  3
Conducta supraterana ---[]---[]---[]---[]---
 72
    65
 73
     2
 40
14.0
 49
7.0
 74
     4
 75
   135
340
4A7
 46
0.1875
 50
45.0
 44
-0.5200000000000001
 45
-0.5300000000000002
 49
7.0
 74
     0
  0
LTYPE
  5
4C0
330
5
100
AcDbSymbolTableRecord
100
AcDbLinetypeTableRecord
  2
CONDCANAL
 70
     0
  3
Conducta canalizare ----(--------(--------(----
 72
    65
 73
     2
 40
11.0
 49
10.0
 74
     4
 75
   147
340
4A7
 46
0.026666666
 50
180.0
 44
0.787265426
 45
1.0
 49
-1.0
 74
     0
  0
LTYPE
  5
4C1
330
5
100
AcDbSymbolTableRecord
100
AcDbLinetypeTableRecord
  2
ELECTSUBT
 70
     0
  3
Lin.electr.subt. <----->  -----  <----->  -----
 72
    65
 73
     4
 40
24.0
 49
10.0
 74
     0
 49
-3.799999999999998
 74
     4
 75
   148
340
4A7
 46
0.1
 50
180.0
 44
0.0
 45
0.0
 49
6.4
 74
     4
 75
   148
340
4A7
 46
0.1
 50
0.0
 44
0.0
 45
0.0
 49
-3.799999999999998
 74
     0
  0
LTYPE
  5
4C2
330
5
100
AcDbSymbolTableRecord
100
AcDbLinetypeTableRecord
  2
AX_RIGOLA
 70
     0
  3
Ax rigola (sant) /-\_/-\_/-\_/-\_/-\_/-\
 72
    65
 73
     2
 40
1.500000000999999
 49
0.000000001
 74
     4
 75
   145
340
4A7
 46
0.01
 50
270.0
 44
0.0
 45
0.0
 49
-1.5
 74
     0
  0
LTYPE
  5
4C3
330
5
100
AcDbSymbolTableRecord
100
AcDbLinetypeTableRecord
  2
ZIDSPRIJIN_ST
 70
     0
  3
Zid de sprijin beton sau piatra ____##____##___
 72
    65
 73
     2
 40
4.500000001
 49
0.000000001
 74
     4
 75
   149
340
4A7
 46
0.1875
 50
0.0
 44
0.0
 45
-0.375
 49
4.5
 74
     0
  0
LTYPE
  5
4C4
330
5
100
AcDbSymbolTableRecord
100
AcDbLinetypeTableRecord
  2
ZIDSPRIJIN_DR
 70
     0
  3
Zid de sprijin beton sau piatra ~~~~##~~~~##~~~
 72
    65
 73
     2
 40
4.500000001
 49
0.000000001
 74
     4
 75
   149
340
4A7
 46
0.1875
 50
0.0
 44
0.0
 45
0.375
 49
4.5
 74
     0
  0
ENDTAB
  0
TABLE
  2
LAYER
  5
2
102
{ACAD_XDICTIONARY
360
174
102
}
330
0
100
AcDbSymbolTable
 70
    26
  0
LAYER
  5
10
330
2
100
AcDbSymbolTableRecord
100
AcDbLayerTableRecord
  2
0
 70
     0
 62
     7
  6
Continuous
370
    -3
390
F
  0
LAYER
  5
164
102
{ACAD_XDICTIONARY
360
165
102
}
330
2
100
AcDbSymbolTableRecord
100
AcDbLayerTableRecord
  2
Nr. imobil
 70
     0
 62
     7
  6
Continuous
370
    -3
390
F
  0
LAYER
  5
166
102
{ACAD_XDICTIONARY
360
167
102
}
330
2
100
AcDbSymbolTableRecord
100
AcDbLayerTableRecord
  2
LIMITA
 70
     0
 62
     7
  6
Continuous
370
    -3
390
F
  0
LAYER
  5
1C9
330
2
100
AcDbSymbolTableRecord
100
AcDbLayerTableRecord
  2
Limita sector cadastral
 70
     0
 62
     3
  6
Continuous
370
    30
390
F
1001
AcAecLayerStandard
1000

1000

1001
AcCmTransparency
1071
        0
  0
LAYER
  5
1E3
102
{ACAD_XDICTIONARY
360
1E4
102
}
330
2
100
AcDbSymbolTableRecord
100
AcDbLayerTableRecord
  2
0 @ 1
 70
     0
 62
     7
  6
Continuous
370
    -3
390
F
1001
AcadAnnotativeDecomposition
1000
AnnotativeData
1002
{
1070
     1
1070
     1
1002
}
  0
LAYER
  5
286
330
2
100
AcDbSymbolTableRecord
100
AcDbLayerTableRecord
  2
Terenuri
 70
     0
 62
   255
  6
Continuous
370
    -3
390
F
1001
AcAecLayerStandard
1000

1000

1001
AcCmTransparency
1071
        0
  0
LAYER
  5
35E
330
2
100
AcDbSymbolTableRecord
100
AcDbLayerTableRecord
  2
Categorie de folosinta
 70
     0
 62
     7
  6
Continuous
370
    -3
390
F
1001
AcAecLayerStandard
1000

1000

  0
LAYER
  5
361
330
2
100
AcDbSymbolTableRecord
100
AcDbLayerTableRecord
  2
Parcele
 70
     0
 62
    38
  6
Continuous
370
    -3
390
F
1001
AcAecLayerStandard
1000

1000

  0
LAYER
  5
372
330
2
100
AcDbSymbolTableRecord
100
AcDbLayerTableRecord
  2
IMOBILE
 70
     0
 62
    50
  6
Continuous
370
    -3
390
F
  0
LAYER
  5
3BB
330
2
100
AcDbSymbolTableRecord
100
AcDbLayerTableRecord
  2
Limita sector
 70
     0
 62
     3
  6
Continuous
370
    30
390
F
1001
AcAecLayerStandard
1000

1000

1001
AcCmTransparency
1071
        0
  0
LAYER
  5
3BC
330
2
100
AcDbSymbolTableRecord
100
AcDbLayerTableRecord
  2
Numar_sector_cadastral
 70
     0
 62
     7
  6
Continuous
370
    -3
390
F
  0
LAYER
  5
3BD
102
{ACAD_XDICTIONARY
360
3BE
102
}
330
2
100
AcDbSymbolTableRecord
100
AcDbLayerTableRecord
  2
Numar_sector_cadastral @ 1
 70
     0
 62
     7
  6
Continuous
370
    -3
390
F
1001
AcadAnnotativeDecomposition
1000
AnnotativeData
1002
{
1070
     1
1070
     1
1002
}
  0
LAYER
  5
419
330
2
100
AcDbSymbolTableRecord
100
AcDbLayerTableRecord
  2
0_PCT_CODURI
 70
     0
 62
    -6
  6
Continuous
370
    -3
390
F
  0
LAYER
  5
41A
330
2
100
AcDbSymbolTableRecord
100
AcDbLayerTableRecord
  2
0_PCT_COTE
 70
     0
 62
    -5
  6
Continuous
370
    -3
390
F
  0
LAYER
  5
41B
330
2
100
AcDbSymbolTableRecord
100
AcDbLayerTableRecord
  2
0_PCT_DENUMIRI
 70
     0
 62
     7
  6
Continuous
370
    -3
390
F
  0
LAYER
  5
41C
330
2
100
AcDbSymbolTableRecord
100
AcDbLayerTableRecord
  2
0_PCT_LINII_MARCAJ
 70
     0
 62
    -5
  6
Continuous
370
    -3
390
F
  0
LAYER
  5
41D
330
2
100
AcDbSymbolTableRecord
100
AcDbLayerTableRecord
  2
0_PCT_SIMBOLURI
 70
     0
 62
     7
  6
Continuous
370
    -3
390
F
  0
LAYER
  5
41E
330
2
100
AcDbSymbolTableRecord
100
AcDbLayerTableRecord
  2
0_PCT_TEXTE_SUPRAPUSE
 70
     0
 62
    -1
  6
Continuous
370
    -3
390
F
  0
LAYER
  5
41F
330
2
100
AcDbSymbolTableRecord
100
AcDbLayerTableRecord
  2
CAROIAJ
 70
     0
 62
     1
  6
Continuous
370
    -3
390
F
  0
LAYER
  5
420
330
2
100
AcDbSymbolTableRecord
100
AcDbLayerTableRecord
  2
IMAGINI_RASTER
 70
     0
 62
     7
  6
Continuous
370
    -3
390
F
  0
LAYER
  5
421
330
2
100
AcDbSymbolTableRecord
100
AcDbLayerTableRecord
  2
CURBE_DE_NIVEL
 70
     0
 62
     1
  6
Continuous
370
    -3
390
F
  0
LAYER
  5
422
330
2
100
AcDbSymbolTableRecord
100
AcDbLayerTableRecord
  2
MODEL_3D
 70
     0
 62
     3
  6
Continuous
370
    -3
390
F
  0
LAYER
  5
423
330
2
100
AcDbSymbolTableRecord
100
AcDbLayerTableRecord
  2
PLANSA
 70
     0
 62
     7
  6
Continuous
370
    -3
390
F
  0
LAYER
  5
424
330
2
100
AcDbSymbolTableRecord
100
AcDbLayerTableRecord
  2
COTARI
 70
     0
 62
     4
  6
Continuous
370
    -3
390
F
  0
LAYER
  5
425
330
2
100
AcDbSymbolTableRecord
100
AcDbLayerTableRecord
  2
VOLUM
 70
     0
 62
     1
  6
Continuous
370
    -3
390
F
  0
LAYER
  5
5D5
330
2
100
AcDbSymbolTableRecord
100
AcDbLayerTableRecord
  2
LABEL
 70
     0
 62
   122
  6
Continuous
370
    -3
390
F
  0
ENDTAB
  0
TABLE
  2
STYLE
  5
3
330
0
100
AcDbSymbolTable
 70
     8
  0
STYLE
  5
11
330
3
100
AcDbSymbolTableRecord
100
AcDbTextStyleTableRecord
  2
Standard
 70
     0
 40
0.0
 41
1.0
 50
0.0
 71
     0
 42
0.2
  3
txt
  4

  0
STYLE
  5
168
330
3
100
AcDbSymbolTableRecord
100
AcDbTextStyleTableRecord
  2
ROMAND
 70
     0
 40
0.0
 41
1.0
 50
0.0
 71
     0
 42
0.2
  3
ROMAND.SHX
  4

  0
STYLE
  5
169
330
3
100
AcDbSymbolTableRecord
100
AcDbTextStyleTableRecord
  2
ROMANC
 70
     0
 40
0.0
 41
1.0
 50
0.0
 71
     0
 42
4.5
  3
ROMANC
  4

1001
AcadAnnotative
1000
AnnotativeData
1002
{
1070
     1
1070
     1
1002
}
  0
STYLE
  5
16A
330
3
100
AcDbSymbolTableRecord
100
AcDbTextStyleTableRecord
  2
ITALICC
 70
     0
 40
0.0
 41
1.0
 50
0.0
 71
     0
 42
87.35425201770704
  3
ITALICC
  4

1001
AcadAnnotative
1000
AnnotativeData
1002
{
1070
     1
1070
     1
1002
}
  0
STYLE
  5
16B
330
3
100
AcDbSymbolTableRecord
100
AcDbTextStyleTableRecord
  2
Arial
 70
     0
 40
0.0
 41
1.0
 50
0.0
 71
     0
 42
0.2
  3
arial.ttf
  4

1001
ACAD
1000
Arial
1071
    60967
  0
STYLE
  5
16C
330
3
100
AcDbSymbolTableRecord
100
AcDbTextStyleTableRecord
  2
TITLE
 70
     0
 40
2.0
 41
1.0
 50
0.0
 71
     0
 42
2.0
  3
arial.ttf
  4

1001
ACAD
1000
Arial
1071
       34
  0
STYLE
  5
40A
330
3
100
AcDbSymbolTableRecord
100
AcDbTextStyleTableRecord
  2
ROMANS
 70
     0
 40
0.0
 41
1.0
 50
0.0
 71
     0
 42
0.2
  3
ROMANS.SHX
  4

  0
STYLE
  5
4A7
330
3
100
AcDbSymbolTableRecord
100
AcDbTextStyleTableRecord
  2

 70
     1
 40
0.0
 41
1.0
 50
0.0
 71
     0
 42
0.2
  3
topolt.shx
  4

  0
ENDTAB
  0
TABLE
  2
VIEW
  5
6
330
0
100
AcDbSymbolTable
 70
     0
  0
ENDTAB
  0
TABLE
  2
UCS
  5
7
330
0
100
AcDbSymbolTable
 70
     0
  0
ENDTAB
  0
TABLE
  2
APPID
  5
9
330
0
100
AcDbSymbolTable
 70
    16
  0
APPID
  5
12
330
9
100
AcDbSymbolTableRecord
100
AcDbRegAppTableRecord
  2
ACAD
 70
     0
  0
APPID
  5
16F
330
9
100
AcDbSymbolTableRecord
100
AcDbRegAppTableRecord
  2
ACAD_PSEXT
 70
     0
  0
APPID
  5
170
330
9
100
AcDbSymbolTableRecord
100
AcDbRegAppTableRecord
  2
AcadAnnotative
 70
     0
  0
APPID
  5
171
330
9
100
AcDbSymbolTableRecord
100
AcDbRegAppTableRecord
  2
ACAD_DSTYLE_DIMJAG
 70
     0
  0
APPID
  5
172
330
9
100
AcDbSymbolTableRecord
100
AcDbRegAppTableRecord
  2
ACAD_DSTYLE_DIMTALN
 70
     0
  0
APPID
  5
173
330
9
100
AcDbSymbolTableRecord
100
AcDbRegAppTableRecord
  2
ACAD_NAV_VCDISPLAY
 70
     0
  0
APPID
  5
1CA
330
9
100
AcDbSymbolTableRecord
100
AcDbRegAppTableRecord
  2
AcAecLayerStandard
 70
     0
  0
APPID
  5
1CB
330
9
100
AcDbSymbolTableRecord
100
AcDbRegAppTableRecord
  2
AcCmTransparency
 70
     0
  0
APPID
  5
1E6
330
9
100
AcDbSymbolTableRecord
100
AcDbRegAppTableRecord
  2
AcadAnnotativeDecomposition
 70
     0
  0
APPID
  5
1E7
330
9
100
AcDbSymbolTableRecord
100
AcDbRegAppTableRecord
  2
AcadAnnotativeAttributeDecomposition
 70
     0
  0
APPID
  5
287
330
9
100
AcDbSymbolTableRecord
100
AcDbRegAppTableRecord
  2
AcLayerTools
 70
     0
  0
APPID
  5
3C0
330
9
100
AcDbSymbolTableRecord
100
AcDbRegAppTableRecord
  2
GradientColor1ACI
 70
     0
  0
APPID
  5
3C1
330
9
100
AcDbSymbolTableRecord
100
AcDbRegAppTableRecord
  2
GradientColor2ACI
 70
     0
  0
APPID
  5
3C2
330
9
100
AcDbSymbolTableRecord
100
AcDbRegAppTableRecord
  2
AcadNonAnnoHatchDecomposition
 70
     0
  0
APPID
  5
409
330
9
100
AcDbSymbolTableRecord
100
AcDbRegAppTableRecord
  2
TOPOLT
 70
     0
  0
APPID
  5
670
330
9
100
AcDbSymbolTableRecord
100
AcDbRegAppTableRecord
  2
AcDbAttr
 70
     0
  0
ENDTAB
  0
TABLE
  2
DIMSTYLE
  5
A
330
0
100
AcDbSymbolTable
 70
     3
100
AcDbDimStyleTable
 71
     1
340
27
  0
DIMSTYLE
105
27
330
A
100
AcDbSymbolTableRecord
100
AcDbDimStyleTableRecord
  2
Standard
 70
     0
340
11
  0
DIMSTYLE
105
16D
330
A
100
AcDbSymbolTableRecord
100
AcDbDimStyleTableRecord
  2
Annotative
 70
     0
 40
0.0
 41
2.5
 42
0.625
 43
3.75
 44
1.25
 73
     0
 74
     0
 77
     1
 78
     8
140
2.5
141
2.5
143
0.03937007874016
147
0.625
171
     3
172
     1
271
     2
272
     2
274
     3
278
    44
283
     0
284
     8
340
11
1001
AcadAnnotative
1000
AnnotativeData
1002
{
1070
     1
1070
     1
1002
}
1001
ACAD_DSTYLE_DIMJAG
1070
   388
1040
1.5
1001
ACAD_DSTYLE_DIMTALN
1070
   392
1070
     0
  0
DIMSTYLE
105
16E
330
A
100
AcDbSymbolTableRecord
100
AcDbDimStyleTableRecord
  2
ISO-25
 70
     0
 41
2.5
 42
0.625
 43
3.75
 44
1.25
 73
     0
 74
     0
 77
     1
 78
     8
140
2.5
141
2.5
143
0.03937007874016
147
0.625
171
     3
172
     1
271
     2
272
     2
274
     3
278
    44
283
     0
284
     8
340
11
  0
ENDTAB
  0
TABLE
  2
BLOCK_RECORD
  5
1
330
0
100
AcDbSymbolTable
 70
    36
  0
BLOCK_RECORD
  5
1F
102
{ACAD_XDICTIONARY
360
379
102
}
330
1
100
AcDbSymbolTableRecord
100
AcDbBlockTableRecord
  2
*Model_Space
340
22
  0
BLOCK_RECORD
  5
58
330
1
100
AcDbSymbolTableRecord
100
AcDbBlockTableRecord
  2
*Paper_Space
340
59
  0
BLOCK_RECORD
  5
5D
330
1
100
AcDbSymbolTableRecord
100
AcDbBlockTableRecord
  2
*Paper_Space0
340
5E
  0
BLOCK_RECORD
  5
B9
330
1
100
AcDbSymbolTableRecord
100
AcDbBlockTableRecord
  2
ARROWP
340
0
102
{BLKREFS
331
1A9
102
}
  0
BLOCK_RECORD
  5
1D4
330
1
100
AcDbSymbolTableRecord
100
AcDbBlockTableRecord
  2
ID
340
0
310
2800000020000000200000000100080000000000000400000000000000000000000000000000000000000000000080000080000000808000800000008000800080800000C0C0C000C0DCC000F0CAA6000020400000206000002080000020A0000020C0000020E00000400000004020000040400000406000004080000040A0
310
000040C0000040E00000600000006020000060400000606000006080000060A0000060C0000060E00000800000008020000080400000806000008080000080A0000080C0000080E00000A0000000A0200000A0400000A0600000A0800000A0A00000A0C00000A0E00000C0000000C0200000C0400000C0600000C0800000C0
310
A00000C0C00000C0E00000E0000000E0200000E0400000E0600000E0800000E0A00000E0C00000E0E00040000000400020004000400040006000400080004000A0004000C0004000E00040200000402020004020400040206000402080004020A0004020C0004020E000404000004040200040404000404060004040800040
310
40A0004040C0004040E00040600000406020004060400040606000406080004060A0004060C0004060E00040800000408020004080400040806000408080004080A0004080C0004080E00040A0000040A0200040A0400040A0600040A0800040A0A00040A0C00040A0E00040C0000040C0200040C0400040C0600040C08000
310
40C0A00040C0C00040C0E00040E0000040E0200040E0400040E0600040E0800040E0A00040E0C00040E0E00080000000800020008000400080006000800080008000A0008000C0008000E00080200000802020008020400080206000802080008020A0008020C0008020E00080400000804020008040400080406000804080
310
008040A0008040C0008040E00080600000806020008060400080606000806080008060A0008060C0008060E00080800000808020008080400080806000808080008080A0008080C0008080E00080A0000080A0200080A0400080A0600080A0800080A0A00080A0C00080A0E00080C0000080C0200080C0400080C0600080C0
310
800080C0A00080C0C00080C0E00080E0000080E0200080E0400080E0600080E0800080E0A00080E0C00080E0E000C0000000C0002000C0004000C0006000C0008000C000A000C000C000C000E000C0200000C0202000C0204000C0206000C0208000C020A000C020C000C020E000C0400000C0402000C0404000C0406000C0
310
408000C040A000C040C000C040E000C0600000C0602000C0604000C0606000C0608000C060A000C060C000C060E000C0800000C0802000C0804000C0806000C0808000C080A000C080C000C080E000C0A00000C0A02000C0A04000C0A06000C0A08000C0A0A000C0A0C000C0A0E000C0C00000C0C02000C0C04000C0C06000
310
C0C08000C0C0A000F0FBFF00A4A0A000808080000000FF0000FF000000FFFF00FF000000FF00FF00FFFF0000FFFFFF0049494949494949494949494949494949494949494949494949494949494949494949494949494949494949494949494949494949494949494949494949494949494949494949494949494949494949
310
49494949494949494949494949494949494949494949494949494949494949494949494949494949494949494949494949494949494949494949494949494949494949494949494949494949494949494949FFFFFFFFFFFFFFFF494949FFFFFFFFFFFFFFFFFFFFFFFF494949494949494949494949FFFF4949494949494949
310
49FFFF494949494949FFFFFF49494949494949494949FFFF494949494949494949FFFF4949494949494949FFFF494949494949494949FFFF494949494949494949FFFF494949494949494949FFFF4949494949494949FFFF494949494949494949FFFF49494949494949494949FFFF49494949494949FFFF49494949494949
310
4949FFFF49494949494949494949FFFF49494949494949FFFF494949494949494949FFFF49494949494949494949FFFF49494949494949FFFF494949494949494949FFFF4949494949494949494949FFFF494949494949FFFF494949494949494949FFFF4949494949494949494949FFFF494949494949FFFF494949494949
310
494949FFFF4949494949494949494949FFFF494949494949FFFF494949494949494949FFFF4949494949494949494949FFFF49494949494949FFFF494949494949494949FFFF4949494949494949494949FFFF494949494949FFFF494949494949494949FFFF4949494949494949494949FFFF494949494949FFFF49494949
310
4949494949FFFF4949494949494949494949FFFF494949494949FFFF494949494949494949FFFF4949494949494949494949FFFF494949494949FFFF494949494949494949FFFF49494949494949494949FFFF49494949494949FFFF494949494949494949FFFF49494949494949494949FFFF49494949494949FFFF494949
310
494949494949FFFF49494949494949494949FFFF49494949494949FFFF494949494949494949FFFF494949494949494949FFFF4949494949494949FFFF494949494949494949FFFF4949494949494949FFFF494949494949494949FFFF494949494949494949FFFF49494949494949FFFF49494949494949FFFFFFFFFFFFFF
310
FF494949FFFFFFFFFFFFFFFFFFFFFFFF494949494949494949494949494949494949494949494949494949494949494949494949494949494949494949494949494949494949494949494949494949494949494949494949494949494949494949494949494949494949494949494949494949494949494949494949494949
310
4949494949494949494949494949494949494949494949494949494949494949494949494949494949494949494949494949494949494949
102
{BLKREFS
331
1DD
331
23A
331
23F
331
244
331
249
331
24E
331
253
331
258
331
25D
331
262
331
268
331
26D
331
272
331
277
331
27C
331
281
331
2B6
331
2BF
331
2C8
331
2EC
331
2D1
331
2F5
331
2FE
331
307
331
310
331
319
331
322
331
2AD
331
2DA
331
2E3
331
34F
331
355
331
69A
102
}
1001
ACAD
1000
DesignCenter Data
1002
{
1070
     1
1070
     4
1002
}
  0
BLOCK_RECORD
  5
1DA
102
{ACAD_XDICTIONARY
360
1DB
102
}
330
1
100
AcDbSymbolTableRecord
100
AcDbBlockTableRecord
  2
*U3
340
0
102
{BLKREFS
331
267
102
}
  0
BLOCK_RECORD
  5
2AA
102
{ACAD_XDICTIONARY
360
2AB
102
}
330
1
100
AcDbSymbolTableRecord
100
AcDbBlockTableRecord
  2
*U4
340
0
102
{BLKREFS
331
346
102
}
  0
BLOCK_RECORD
  5
2B3
102
{ACAD_XDICTIONARY
360
2B4
102
}
330
1
100
AcDbSymbolTableRecord
100
AcDbBlockTableRecord
  2
*U5
340
0
102
{BLKREFS
331
349
102
}
  0
BLOCK_RECORD
  5
2BC
102
{ACAD_XDICTIONARY
360
2BD
102
}
330
1
100
AcDbSymbolTableRecord
100
AcDbBlockTableRecord
  2
*U6
340
0
102
{BLKREFS
331
34A
102
}
  0
BLOCK_RECORD
  5
2C5
102
{ACAD_XDICTIONARY
360
2C6
102
}
330
1
100
AcDbSymbolTableRecord
100
AcDbBlockTableRecord
  2
*U7
340
0
102
{BLKREFS
331
34B
102
}
  0
BLOCK_RECORD
  5
2CE
102
{ACAD_XDICTIONARY
360
2CF
102
}
330
1
100
AcDbSymbolTableRecord
100
AcDbBlockTableRecord
  2
*U8
340
0
102
{BLKREFS
331
34D
102
}
  0
BLOCK_RECORD
  5
2D7
102
{ACAD_XDICTIONARY
360
2D8
102
}
330
1
100
AcDbSymbolTableRecord
100
AcDbBlockTableRecord
  2
*U9
340
0
102
{BLKREFS
331
347
102
}
  0
BLOCK_RECORD
  5
2E0
102
{ACAD_XDICTIONARY
360
2E1
102
}
330
1
100
AcDbSymbolTableRecord
100
AcDbBlockTableRecord
  2
*U10
340
0
  0
BLOCK_RECORD
  5
2E9
102
{ACAD_XDICTIONARY
360
2EA
102
}
330
1
100
AcDbSymbolTableRecord
100
AcDbBlockTableRecord
  2
*U11
340
0
102
{BLKREFS
331
34C
102
}
  0
BLOCK_RECORD
  5
2F2
102
{ACAD_XDICTIONARY
360
2F3
102
}
330
1
100
AcDbSymbolTableRecord
100
AcDbBlockTableRecord
  2
*U12
340
0
102
{BLKREFS
331
34E
102
}
  0
BLOCK_RECORD
  5
2FB
102
{ACAD_XDICTIONARY
360
2FC
102
}
330
1
100
AcDbSymbolTableRecord
100
AcDbBlockTableRecord
  2
*U13
340
0
102
{BLKREFS
331
354
102
}
  0
BLOCK_RECORD
  5
304
102
{ACAD_XDICTIONARY
360
305
102
}
330
1
100
AcDbSymbolTableRecord
100
AcDbBlockTableRecord
  2
*U14
340
0
102
{BLKREFS
331
35A
102
}
  0
BLOCK_RECORD
  5
30D
102
{ACAD_XDICTIONARY
360
30E
102
}
330
1
100
AcDbSymbolTableRecord
100
AcDbBlockTableRecord
  2
*U15
340
0
102
{BLKREFS
331
35B
102
}
  0
BLOCK_RECORD
  5
316
102
{ACAD_XDICTIONARY
360
317
102
}
330
1
100
AcDbSymbolTableRecord
100
AcDbBlockTableRecord
  2
*U16
340
0
102
{BLKREFS
331
35C
102
}
  0
BLOCK_RECORD
  5
31F
102
{ACAD_XDICTIONARY
360
320
102
}
330
1
100
AcDbSymbolTableRecord
100
AcDbBlockTableRecord
  2
*U17
340
0
102
{BLKREFS
331
35D
102
}
  0
BLOCK_RECORD
  5
40C
330
1
100
AcDbSymbolTableRecord
100
AcDbBlockTableRecord
  2
PUNCT
340
0
  0
BLOCK_RECORD
  5
426
330
1
100
AcDbSymbolTableRecord
100
AcDbBlockTableRecord
  2
CVCAN
340
0
  0
BLOCK_RECORD
  5
42C
330
1
100
AcDbSymbolTableRecord
100
AcDbBlockTableRecord
  2
GAGER
340
0
  0
BLOCK_RECORD
  5
436
330
1
100
AcDbSymbolTableRecord
100
AcDbBlockTableRecord
  2
HIDRANT
340
0
  0
BLOCK_RECORD
  5
43F
330
1
100
AcDbSymbolTableRecord
100
AcDbBlockTableRecord
  2
CVGAZE
340
0
  0
BLOCK_RECORD
  5
445
330
1
100
AcDbSymbolTableRecord
100
AcDbBlockTableRecord
  2
CVTEL
340
0
  0
BLOCK_RECORD
  5
44C
330
1
100
AcDbSymbolTableRecord
100
AcDbBlockTableRecord
  2
PTSTALP
340
0
  0
BLOCK_RECORD
  5
45A
330
1
100
AcDbSymbolTableRecord
100
AcDbBlockTableRecord
  2
STLEA
340
0
  0
BLOCK_RECORD
  5
468
330
1
100
AcDbSymbolTableRecord
100
AcDbBlockTableRecord
  2
STELLIN
340
0
  0
BLOCK_RECORD
  5
473
330
1
100
AcDbSymbolTableRecord
100
AcDbBlockTableRecord
  2
STILBET
340
0
  0
BLOCK_RECORD
  5
47A
330
1
100
AcDbSymbolTableRecord
100
AcDbBlockTableRecord
  2
STILLMN
340
0
  0
BLOCK_RECORD
  5
480
330
1
100
AcDbSymbolTableRecord
100
AcDbBlockTableRecord
  2
STTEL
340
0
  0
BLOCK_RECORD
  5
486
330
1
100
AcDbSymbolTableRecord
100
AcDbBlockTableRecord
  2
STELCF
340
0
  0
BLOCK_RECORD
  5
48C
330
1
100
AcDbSymbolTableRecord
100
AcDbBlockTableRecord
  2
LAMPADAR
340
0
  0
BLOCK_RECORD
  5
494
330
1
100
AcDbSymbolTableRecord
100
AcDbBlockTableRecord
  2
PROIECTOR
340
0
  0
BLOCK_RECORD
  5
49C
330
1
100
AcDbSymbolTableRecord
100
AcDbBlockTableRecord
  2
STATIE
340
0
  0
BLOCK_RECORD
  5
4C8
330
1
100
AcDbSymbolTableRecord
100
AcDbBlockTableRecord
  2
CJx
340
0
102
{BLKREFS
331
56F
331
570
331
571
331
572
331
573
331
574
331
575
331
576
331
577
331
578
331
579
331
57A
331
57B
331
57C
331
57D
331
57E
331
57F
331
580
331
581
331
582
331
583
331
584
331
585
331
586
331
587
331
588
331
589
331
58A
331
58B
331
58C
331
58D
331
58E
331
58F
331
590
331
591
331
592
331
593
331
594
331
595
331
596
331
597
331
598
331
599
331
59A
102
}
  0
BLOCK_RECORD
  5
535
330
1
100
AcDbSymbolTableRecord
100
AcDbBlockTableRecord
  2
*U35
340
0
102
{BLKREFS
331
59C
102
}
  0
ENDTAB
  0
ENDSEC
  0
SECTION
  2
BLOCKS
  0
BLOCK
  5
20
330
1F
100
AcDbEntity
  8
0
100
AcDbBlockBegin
  2
*Model_Space
 70
     0
 10
0.0
 20
0.0
 30
0.0
  3
*Model_Space
  1

  0
ENDBLK
  5
21
330
1F
100
AcDbEntity
  8
0
100
AcDbBlockEnd
  0
BLOCK
  5
5A
330
58
100
AcDbEntity
 67
     1
  8
0
100
AcDbBlockBegin
  2
*Paper_Space
 70
     0
 10
0.0
 20
0.0
 30
0.0
  3
*Paper_Space
  1

  0
ENDBLK
  5
5B
330
58
100
AcDbEntity
 67
     1
  8
0
100
AcDbBlockEnd
  0
BLOCK
  5
5F
330
5D
100
AcDbEntity
 67
     1
  8
0
100
AcDbBlockBegin
  2
*Paper_Space0
 70
     0
 10
0.0
 20
0.0
 30
0.0
  3
*Paper_Space0
  1

  0
ENDBLK
  5
60
330
5D
100
AcDbEntity
 67
     1
  8
0
100
AcDbBlockEnd
  0
BLOCK
  5
BA
330
B9
100
AcDbEntity
  8
0
100
AcDbBlockBegin
  2
ARROWP
 70
     0
 10
0.0
 20
0.0
 30
0.0
  3
ARROWP
  1

  0
LINE
  5
BB
330
B9
100
AcDbEntity
  8
Nr. imobil
 62
     0
100
AcDbLine
 10
-0.1470852093185565
 20
0.317412212068034
 30
0.0
 11
-0.000000000002783
 21
1.494093886594221
 31
0.0
  0
LINE
  5
BC
330
B9
100
AcDbEntity
  8
Nr. imobil
 62
     0
100
AcDbLine
 10
-0.000000000002783
 20
0.6115826306995812
 30
0.0
 11
-0.1470852093185565
 21
0.317412212068034
 31
0.0
  0
LWPOLYLINE
  5
BD
330
B9
100
AcDbEntity
  8
Nr. imobil
  6
Continuous
100
AcDbPolyline
 90
        2
 70
     0
 43
0.0588340837263094
 10
-0.1176681674554018
 20
-0.5650990438266073
 10
-0.1176681674554018
 20
-0.2120945414687505
  0
LWPOLYLINE
  5
BE
330
B9
100
AcDbEntity
  8
Nr. imobil
  6
Continuous
100
AcDbPolyline
 90
        2
 70
     0
 43
0.0588340837263094
 10
0.1176681674498359
 20
-0.5650990438266073
 10
0.1176681674498359
 20
-0.2120945414687505
  0
LINE
  5
BF
330
B9
100
AcDbEntity
  8
Nr. imobil
 62
     0
100
AcDbLine
 10
-0.000000000002783
 20
1.494093886594221
 30
0.0
 11
0.0000000000006416
 21
-0.3444712298597961
 31
0.0
  0
LINE
  5
C0
330
B9
100
AcDbEntity
  8
Nr. imobil
 62
     0
100
AcDbLine
 10
0.0000000000006416
 20
-0.4327223554492602
 30
0.0
 11
-0.000000000002783
 21
-1.153439881089698
 31
0.0
  0
LWPOLYLINE
  5
C1
330
B9
100
AcDbEntity
  8
Nr. imobil
  6
Continuous
100
AcDbPolyline
 90
        2
 70
     0
 43
0.0094134533962095
 10
0.0093342762558021
 20
-0.3584726442459611
 10
-0.0494998074670827
 20
-0.3584726442459611
  0
LWPOLYLINE
  5
C2
330
B9
100
AcDbEntity
  8
Nr. imobil
  6
Continuous
100
AcDbPolyline
 90
        2
 70
     0
 43
0.0094134533962095
 10
0.003107669061343
 20
-0.349132733450848
 10
-0.0557264146615418
 20
-0.349132733450848
  0
LWPOLYLINE
  5
C3
330
B9
100
AcDbEntity
  8
Nr. imobil
  6
Continuous
100
AcDbPolyline
 90
        2
 70
     0
 43
0.0094134533962095
 10
-0.003118938133116
 20
-0.3397928226625841
 10
-0.0619530218560009
 20
-0.3397928226625841
  0
LWPOLYLINE
  5
C4
330
B9
100
AcDbEntity
  8
Nr. imobil
  6
Continuous
100
AcDbPolyline
 90
        2
 70
     0
 43
0.0094134533962095
 10
-0.0093455453275751
 20
-0.3304529118674708
 10
-0.0681796290504599
 20
-0.3304529118674708
  0
LWPOLYLINE
  5
C5
330
B9
100
AcDbEntity
  8
Nr. imobil
  6
Continuous
100
AcDbPolyline
 90
        2
 70
     0
 43
0.0094134533962095
 10
-0.0155721525220342
 20
-0.3211130010792067
 10
-0.0744062362449191
 20
-0.3211130010792067
  0
LWPOLYLINE
  5
C6
330
B9
100
AcDbEntity
  8
Nr. imobil
  6
Continuous
100
AcDbPolyline
 90
        2
 70
     0
 43
0.0094134533962095
 10
-0.0217987597164933
 20
-0.3117730902840936
 10
-0.0806328434393781
 20
-0.3117730902840936
  0
LWPOLYLINE
  5
C7
330
B9
100
AcDbEntity
  8
Nr. imobil
  6
Continuous
100
AcDbPolyline
 90
        2
 70
     0
 43
0.0094134533962095
 10
-0.0280253669109524
 20
-0.3024331794958297
 10
-0.0868594506338372
 20
-0.3024331794958297
  0
LWPOLYLINE
  5
C8
330
B9
100
AcDbEntity
  8
Nr. imobil
  6
Continuous
100
AcDbPolyline
 90
        2
 70
     0
 43
0.0094134533962095
 10
-0.0342519741054114
 20
-0.2930932687007164
 10
-0.0882511255922472
 20
-0.2930932687007164
  0
LWPOLYLINE
  5
C9
330
B9
100
AcDbEntity
  8
Nr. imobil
  6
Continuous
100
AcDbPolyline
 90
        2
 70
     0
 43
0.0094134533962095
 10
-0.0404785812998705
 20
-0.2837533579124523
 10
-0.0882511255922472
 20
-0.2837533579124523
  0
LWPOLYLINE
  5
CA
330
B9
100
AcDbEntity
  8
Nr. imobil
  6
Continuous
100
AcDbPolyline
 90
        2
 70
     0
 43
0.0094134533962095
 10
-0.0467051884943295
 20
-0.2744134471173392
 10
-0.0882511255922472
 20
-0.2744134471173392
  0
LWPOLYLINE
  5
CB
330
B9
100
AcDbEntity
  8
Nr. imobil
  6
Continuous
100
AcDbPolyline
 90
        2
 70
     0
 43
0.0094134533962095
 10
-0.0529317956887886
 20
-0.2650735363290753
 10
-0.0882511255922472
 20
-0.2650735363290753
  0
LWPOLYLINE
  5
CC
330
B9
100
AcDbEntity
  8
Nr. imobil
  6
Continuous
100
AcDbPolyline
 90
        2
 70
     0
 43
0.0094134533962095
 10
-0.0591584028832477
 20
-0.2557336255339619
 10
-0.0882511255922472
 20
-0.2557336255339619
  0
LWPOLYLINE
  5
CD
330
B9
100
AcDbEntity
  8
Nr. imobil
  6
Continuous
100
AcDbPolyline
 90
        2
 70
     0
 43
0.0094134533962095
 10
-0.0653850100777068
 20
-0.246393714745698
 10
-0.0882511255922472
 20
-0.246393714745698
  0
LWPOLYLINE
  5
CE
330
B9
100
AcDbEntity
  8
Nr. imobil
  6
Continuous
100
AcDbPolyline
 90
        2
 70
     0
 43
0.0094134533962095
 10
-0.0716116172721658
 20
-0.2370538039505847
 10
-0.0882511255922472
 20
-0.2370538039505847
  0
LWPOLYLINE
  5
CF
330
B9
100
AcDbEntity
  8
Nr. imobil
  6
Continuous
100
AcDbPolyline
 90
        2
 70
     0
 43
0.0094134533962095
 10
-0.0778382244666249
 20
-0.2277138931623208
 10
-0.0882511255922472
 20
-0.2277138931623208
  0
LWPOLYLINE
  5
D0
330
B9
100
AcDbEntity
  8
Nr. imobil
  6
Continuous
100
AcDbPolyline
 90
        2
 70
     0
 43
0.0094134533962095
 10
0.0882511255901058
 20
-0.5546107708679975
 10
0.0812589436131331
 20
-0.5546107708679975
  0
LWPOLYLINE
  5
D1
330
B9
100
AcDbEntity
  8
Nr. imobil
  6
Continuous
100
AcDbPolyline
 90
        2
 70
     0
 43
0.0094134533962095
 10
0.0882511255901058
 20
-0.5452708600728843
 10
0.075032336418674
 20
-0.5452708600728843
  0
LWPOLYLINE
  5
D2
330
B9
100
AcDbEntity
  8
Nr. imobil
  6
Continuous
100
AcDbPolyline
 90
        2
 70
     0
 43
0.0094134533962095
 10
0.0882511255901058
 20
-0.5359309492846202
 10
0.068805729224215
 20
-0.5359309492846202
  0
LWPOLYLINE
  5
D3
330
B9
100
AcDbEntity
  8
Nr. imobil
  6
Continuous
100
AcDbPolyline
 90
        2
 70
     0
 43
0.0094134533962095
 10
0.0882511255901058
 20
-0.526591038489507
 10
0.0625791220297559
 20
-0.526591038489507
  0
LWPOLYLINE
  5
D4
330
B9
100
AcDbEntity
  8
Nr. imobil
  6
Continuous
100
AcDbPolyline
 90
        2
 70
     0
 43
0.0094134533962095
 10
0.0882511255866812
 20
-0.5172511277012432
 10
0.0563525148352969
 20
-0.5172511277012432
  0
LWPOLYLINE
  5
D5
330
B9
100
AcDbEntity
  8
Nr. imobil
  6
Continuous
100
AcDbPolyline
 90
        2
 70
     0
 43
0.0094134533962095
 10
0.0882511255866812
 20
-0.5079112169061297
 10
0.0501259076408378
 20
-0.5079112169061297
  0
LWPOLYLINE
  5
D6
330
B9
100
AcDbEntity
  8
Nr. imobil
  6
Continuous
100
AcDbPolyline
 90
        2
 70
     0
 43
0.0094134533962095
 10
0.0882511255866812
 20
-0.4985713061178656
 10
0.0438993004463787
 20
-0.4985713061178656
  0
LWPOLYLINE
  5
D7
330
B9
100
AcDbEntity
  8
Nr. imobil
  6
Continuous
100
AcDbPolyline
 90
        2
 70
     0
 43
0.0094134533962095
 10
0.0882511255866812
 20
-0.4892313953227525
 10
0.0376726932519196
 20
-0.4892313953227525
  0
LWPOLYLINE
  5
D8
330
B9
100
AcDbEntity
  8
Nr. imobil
  6
Continuous
100
AcDbPolyline
 90
        2
 70
     0
 43
0.0094134533962095
 10
0.0882511255866812
 20
-0.4798914845344886
 10
0.0314460860574606
 20
-0.4798914845344886
  0
LWPOLYLINE
  5
D9
330
B9
100
AcDbEntity
  8
Nr. imobil
  6
Continuous
100
AcDbPolyline
 90
        2
 70
     0
 43
0.0094134533962095
 10
0.0840535625858863
 20
-0.4705515737393755
 10
0.0252194788630015
 20
-0.4705515737393755
  0
LWPOLYLINE
  5
DA
330
B9
100
AcDbEntity
  8
Nr. imobil
  6
Continuous
100
AcDbPolyline
 90
        2
 70
     0
 43
0.0094134533962095
 10
0.0778269553914273
 20
-0.4612116629511112
 10
0.0189928716685424
 20
-0.4612116629511112
  0
LWPOLYLINE
  5
DB
330
B9
100
AcDbEntity
  8
Nr. imobil
  6
Continuous
100
AcDbPolyline
 90
        2
 70
     0
 43
0.0094134533962095
 10
0.0716003481969682
 20
-0.4518717521628475
 10
0.0127662644740834
 20
-0.4518717521628475
  0
LWPOLYLINE
  5
DC
330
B9
100
AcDbEntity
  8
Nr. imobil
  6
Continuous
100
AcDbPolyline
 90
        2
 70
     0
 43
0.0094134533962095
 10
0.0653737410025091
 20
-0.4425318413677342
 10
0.0065396572796242
 20
-0.4425318413677342
  0
LWPOLYLINE
  5
DD
330
B9
100
AcDbEntity
  8
Nr. imobil
  6
Continuous
100
AcDbPolyline
 90
        2
 70
     0
 43
0.0094134533962095
 10
0.05914713380805
 20
-0.4331919305794701
 10
0.0003130500885898
 20
-0.4331919305794701
  0
LWPOLYLINE
  5
DE
330
B9
100
AcDbEntity
  8
Nr. imobil
  6
Continuous
100
AcDbPolyline
 90
        2
 70
     0
 43
0.0094134533962095
 10
0.0529205266170156
 20
-0.4238520197843572
 10
-0.0059135571058693
 20
-0.4238520197843572
  0
LWPOLYLINE
  5
DF
330
B9
100
AcDbEntity
  8
Nr. imobil
  6
Continuous
100
AcDbPolyline
 90
        2
 70
     0
 43
0.0094134533962095
 10
0.0466939194225565
 20
-0.4145121089960928
 10
-0.0121401643003283
 20
-0.4145121089960928
  0
LWPOLYLINE
  5
E0
330
B9
100
AcDbEntity
  8
Nr. imobil
  6
Continuous
100
AcDbPolyline
 90
        2
 70
     0
 43
0.0094134533962095
 10
0.0404673122280974
 20
-0.4051721982009797
 10
-0.0183667714947874
 20
-0.4051721982009797
  0
LWPOLYLINE
  5
E1
330
B9
100
AcDbEntity
  8
Nr. imobil
  6
Continuous
100
AcDbPolyline
 90
        2
 70
     0
 43
0.0094134533962095
 10
0.0342407050336384
 20
-0.3958322874127156
 10
-0.0245933786892465
 20
-0.3958322874127156
  0
LWPOLYLINE
  5
E2
330
B9
100
AcDbEntity
  8
Nr. imobil
  6
Continuous
100
AcDbPolyline
 90
        2
 70
     0
 43
0.0094134533962095
 10
0.0280140978391793
 20
-0.3864923766176025
 10
-0.0308199858837056
 20
-0.3864923766176025
  0
LWPOLYLINE
  5
E3
330
B9
100
AcDbEntity
  8
Nr. imobil
  6
Continuous
100
AcDbPolyline
 90
        2
 70
     0
 43
0.0094134533962095
 10
0.0217874906447202
 20
-0.3771524658293384
 10
-0.0370465930781646
 20
-0.3771524658293384
  0
LWPOLYLINE
  5
E4
330
B9
100
AcDbEntity
  8
Nr. imobil
  6
Continuous
100
AcDbPolyline
 90
        2
 70
     0
 43
0.0094134533962095
 10
0.0155608834502611
 20
-0.3678125550342253
 10
-0.0432732002726237
 20
-0.3678125550342253
  0
LINE
  5
E5
330
B9
100
AcDbEntity
  8
Nr. imobil
  6
Continuous
100
AcDbLine
 10
0.0004080242588032
 20
1.490829692480985
 30
0.0
 11
-0.0000000000062076
 21
1.490829692480985
 31
0.0
  0
LWPOLYLINE
  5
E6
330
B9
100
AcDbEntity
  8
Nr. imobil
  6
Continuous
100
AcDbPolyline
 90
        2
 70
     0
 43
0.0094134533962095
 10
0.0074129573534258
 20
1.434790227730854
 10
-0.0000000000062076
 20
1.434790227730854
  0
LWPOLYLINE
  5
E7
330
B9
100
AcDbEntity
  8
Nr. imobil
  6
Continuous
100
AcDbPolyline
 90
        2
 70
     0
 43
0.0094134533962095
 10
0.0085804462019588
 20
1.425450316942588
 10
-0.0000000000062076
 20
1.425450316942588
  0
LWPOLYLINE
  5
E8
330
B9
100
AcDbEntity
  8
Nr. imobil
  6
Continuous
100
AcDbPolyline
 90
        2
 70
     0
 43
0.0094134533962095
 10
0.0097479350504918
 20
1.416110406147475
 10
-0.0000000000062076
 20
1.416110406147475
  0
LWPOLYLINE
  5
E9
330
B9
100
AcDbEntity
  8
Nr. imobil
  6
Continuous
100
AcDbPolyline
 90
        2
 70
     0
 43
0.0094134533962095
 10
0.0109154238990248
 20
1.406770495359211
 10
-0.0000000000062076
 20
1.406770495359211
  0
LWPOLYLINE
  5
EA
330
B9
100
AcDbEntity
  8
Nr. imobil
  6
Continuous
100
AcDbPolyline
 90
        2
 70
     0
 43
0.0094134533962095
 10
0.0120829127475578
 20
1.397430584570946
 10
-0.0000000000062076
 20
1.397430584570946
  0
LWPOLYLINE
  5
EB
330
B9
100
AcDbEntity
  8
Nr. imobil
  6
Continuous
100
AcDbPolyline
 90
        2
 70
     0
 43
0.0094134533962095
 10
0.0132504015995154
 20
1.388090673775832
 10
-0.0000000000062076
 20
1.388090673775832
  0
LWPOLYLINE
  5
EC
330
B9
100
AcDbEntity
  8
Nr. imobil
  6
Continuous
100
AcDbPolyline
 90
        2
 70
     0
 43
0.0094134533962095
 10
0.0144178904480484
 20
1.378750762987571
 10
-0.0000000000062076
 20
1.378750762987571
  0
LWPOLYLINE
  5
ED
330
B9
100
AcDbEntity
  8
Nr. imobil
  6
Continuous
100
AcDbPolyline
 90
        2
 70
     0
 43
0.0094134533962095
 10
0.0155853792965815
 20
1.369410852192457
 10
-0.0000000000062076
 20
1.369410852192457
  0
LWPOLYLINE
  5
EE
330
B9
100
AcDbEntity
  8
Nr. imobil
  6
Continuous
100
AcDbPolyline
 90
        2
 70
     0
 43
0.0094134533962095
 10
0.0167528681451144
 20
1.360070941404194
 10
-0.0000000000062076
 20
1.360070941404194
  0
LWPOLYLINE
  5
EF
330
B9
100
AcDbEntity
  8
Nr. imobil
  6
Continuous
100
AcDbPolyline
 90
        2
 70
     0
 43
0.0094134533962095
 10
0.0179203569936474
 20
1.350731030609081
 10
-0.0000000000062076
 20
1.350731030609081
  0
LWPOLYLINE
  5
F0
330
B9
100
AcDbEntity
  8
Nr. imobil
  6
Continuous
100
AcDbPolyline
 90
        2
 70
     0
 43
0.0094134533962095
 10
0.0190878458421804
 20
1.341391119820817
 10
-0.0000000000062076
 20
1.341391119820817
  0
LWPOLYLINE
  5
F1
330
B9
100
AcDbEntity
  8
Nr. imobil
  6
Continuous
100
AcDbPolyline
 90
        2
 70
     0
 43
0.0094134533962095
 10
0.0202553346907134
 20
1.332051209025702
 10
-0.0000000000062076
 20
1.332051209025702
  0
LWPOLYLINE
  5
F2
330
B9
100
AcDbEntity
  8
Nr. imobil
  6
Continuous
100
AcDbPolyline
 90
        2
 70
     0
 43
0.0094134533962095
 10
0.0214228235392464
 20
1.322711298237438
 10
-0.0000000000062076
 20
1.322711298237438
  0
LWPOLYLINE
  5
F3
330
B9
100
AcDbEntity
  8
Nr. imobil
  6
Continuous
100
AcDbPolyline
 90
        2
 70
     0
 43
0.0094134533962095
 10
0.022590312391204
 20
1.313371387442324
 10
-0.0000000000062076
 20
1.313371387442324
  0
LWPOLYLINE
  5
F4
330
B9
100
AcDbEntity
  8
Nr. imobil
  6
Continuous
100
AcDbPolyline
 90
        2
 70
     0
 43
0.0094134533962095
 10
0.023757801239737
 20
1.304031476654061
 10
-0.0000000000062076
 20
1.304031476654061
  0
LWPOLYLINE
  5
F5
330
B9
100
AcDbEntity
  8
Nr. imobil
  6
Continuous
100
AcDbPolyline
 90
        2
 70
     0
 43
0.0094134533962095
 10
0.0249252900882701
 20
1.294691565858949
 10
-0.0000000000062076
 20
1.294691565858949
  0
LWPOLYLINE
  5
F6
330
B9
100
AcDbEntity
  8
Nr. imobil
  6
Continuous
100
AcDbPolyline
 90
        2
 70
     0
 43
0.0094134533962095
 10
0.026092778936803
 20
1.285351655070684
 10
-0.0000000000062076
 20
1.285351655070684
  0
LWPOLYLINE
  5
F7
330
B9
100
AcDbEntity
  8
Nr. imobil
  6
Continuous
100
AcDbPolyline
 90
        2
 70
     0
 43
0.0094134533962095
 10
0.027260267785336
 20
1.276011744275572
 10
-0.0000000000062076
 20
1.276011744275572
  0
LWPOLYLINE
  5
F8
330
B9
100
AcDbEntity
  8
Nr. imobil
  6
Continuous
100
AcDbPolyline
 90
        2
 70
     0
 43
0.0094134533962095
 10
0.028427756633869
 20
1.266671833487307
 10
-0.0000000000062076
 20
1.266671833487307
  0
LWPOLYLINE
  5
F9
330
B9
100
AcDbEntity
  8
Nr. imobil
  6
Continuous
100
AcDbPolyline
 90
        2
 70
     0
 43
0.0094134533962095
 10
0.029595245482402
 20
1.257331922692195
 10
-0.0000000000062076
 20
1.257331922692195
  0
LWPOLYLINE
  5
FA
330
B9
100
AcDbEntity
  8
Nr. imobil
  6
Continuous
100
AcDbPolyline
 90
        2
 70
     0
 43
0.0094134533962095
 10
0.030762734330935
 20
1.247992011903928
 10
-0.0000000000062076
 20
1.247992011903928
  0
LWPOLYLINE
  5
FB
330
B9
100
AcDbEntity
  8
Nr. imobil
  6
Continuous
100
AcDbPolyline
 90
        2
 70
     0
 43
0.0094134533962095
 10
0.0319302231828926
 20
1.238652101108817
 10
-0.0000000000062076
 20
1.238652101108817
  0
LWPOLYLINE
  5
FC
330
B9
100
AcDbEntity
  8
Nr. imobil
  6
Continuous
100
AcDbPolyline
 90
        2
 70
     0
 43
0.0094134533962095
 10
0.0330977120314256
 20
1.229312190320553
 10
-0.0000000000062076
 20
1.229312190320553
  0
LWPOLYLINE
  5
FD
330
B9
100
AcDbEntity
  8
Nr. imobil
  6
Continuous
100
AcDbPolyline
 90
        2
 70
     0
 43
0.0094134533962095
 10
0.0342652008799586
 20
1.219972279525439
 10
-0.0000000000062076
 20
1.219972279525439
  0
LWPOLYLINE
  5
FE
330
B9
100
AcDbEntity
  8
Nr. imobil
  6
Continuous
100
AcDbPolyline
 90
        2
 70
     0
 43
0.0094134533962095
 10
0.0354326897284916
 20
1.210632368737176
 10
-0.0000000000062076
 20
1.210632368737176
  0
LWPOLYLINE
  5
FF
330
B9
100
AcDbEntity
  8
Nr. imobil
  6
Continuous
100
AcDbPolyline
 90
        2
 70
     0
 43
0.0094134533962095
 10
0.0366001785770246
 20
1.201292457942062
 10
-0.0000000000062076
 20
1.201292457942062
  0
LWPOLYLINE
  5
100
330
B9
100
AcDbEntity
  8
Nr. imobil
  6
Continuous
100
AcDbPolyline
 90
        2
 70
     0
 43
0.0094134533962095
 10
0.0377676674255576
 20
1.191952547153799
 10
-0.0000000000062076
 20
1.191952547153799
  0
LWPOLYLINE
  5
101
330
B9
100
AcDbEntity
  8
Nr. imobil
  6
Continuous
100
AcDbPolyline
 90
        2
 70
     0
 43
0.0094134533962095
 10
0.0389351562740906
 20
1.182612636358686
 10
-0.0000000000062076
 20
1.182612636358686
  0
LWPOLYLINE
  5
102
330
B9
100
AcDbEntity
  8
Nr. imobil
  6
Continuous
100
AcDbPolyline
 90
        2
 70
     0
 43
0.0094134533962095
 10
0.0401026451226236
 20
1.173272725570422
 10
-0.0000000000062076
 20
1.173272725570422
  0
LWPOLYLINE
  5
103
330
B9
100
AcDbEntity
  8
Nr. imobil
  6
Continuous
100
AcDbPolyline
 90
        2
 70
     0
 43
0.0094134533962095
 10
0.0412701339745812
 20
1.163932814782157
 10
-0.0000000000062076
 20
1.163932814782157
  0
LWPOLYLINE
  5
104
330
B9
100
AcDbEntity
  8
Nr. imobil
  6
Continuous
100
AcDbPolyline
 90
        2
 70
     0
 43
0.0094134533962095
 10
0.0424376228231142
 20
1.154592903987045
 10
-0.0000000000062076
 20
1.154592903987045
  0
LWPOLYLINE
  5
105
330
B9
100
AcDbEntity
  8
Nr. imobil
  6
Continuous
100
AcDbPolyline
 90
        2
 70
     0
 43
0.0094134533962095
 10
0.0436051116716472
 20
1.14525299319878
 10
-0.0000000000062076
 20
1.14525299319878
  0
LWPOLYLINE
  5
106
330
B9
100
AcDbEntity
  8
Nr. imobil
  6
Continuous
100
AcDbPolyline
 90
        2
 70
     0
 43
0.0094134533962095
 10
0.0447726005201802
 20
1.135913082403666
 10
-0.0000000000062076
 20
1.135913082403666
  0
LWPOLYLINE
  5
107
330
B9
100
AcDbEntity
  8
Nr. imobil
  6
Continuous
100
AcDbPolyline
 90
        2
 70
     0
 43
0.0094134533962095
 10
0.0459400893687132
 20
1.126573171615403
 10
-0.0000000000062076
 20
1.126573171615403
  0
LWPOLYLINE
  5
108
330
B9
100
AcDbEntity
  8
Nr. imobil
  6
Continuous
100
AcDbPolyline
 90
        2
 70
     0
 43
0.0094134533962095
 10
0.0471075782172462
 20
1.117233260820289
 10
-0.0000000000062076
 20
1.117233260820289
  0
LWPOLYLINE
  5
109
330
B9
100
AcDbEntity
  8
Nr. imobil
  6
Continuous
100
AcDbPolyline
 90
        2
 70
     0
 43
0.0094134533962095
 10
0.0482750670657792
 20
1.107893350032024
 10
-0.0000000000062076
 20
1.107893350032024
  0
LWPOLYLINE
  5
10A
330
B9
100
AcDbEntity
  8
Nr. imobil
  6
Continuous
100
AcDbPolyline
 90
        2
 70
     0
 43
0.0094134533962095
 10
0.0494425559143123
 20
1.098553439236912
 10
-0.0000000000062076
 20
1.098553439236912
  0
LWPOLYLINE
  5
10B
330
B9
100
AcDbEntity
  8
Nr. imobil
  6
Continuous
100
AcDbPolyline
 90
        2
 70
     0
 43
0.0094134533962095
 10
0.0506100447628452
 20
1.089213528448649
 10
-0.0000000000062076
 20
1.089213528448649
  0
LWPOLYLINE
  5
10C
330
B9
100
AcDbEntity
  8
Nr. imobil
  6
Continuous
100
AcDbPolyline
 90
        2
 70
     0
 43
0.0094134533962095
 10
0.0517775336148028
 20
1.079873617653535
 10
-0.0000000000062076
 20
1.079873617653535
  0
LWPOLYLINE
  5
10D
330
B9
100
AcDbEntity
  8
Nr. imobil
  6
Continuous
100
AcDbPolyline
 90
        2
 70
     0
 43
0.0094134533962095
 10
0.0529450224633358
 20
1.07053370686527
 10
-0.0000000000062076
 20
1.07053370686527
  0
LWPOLYLINE
  5
10E
330
B9
100
AcDbEntity
  8
Nr. imobil
  6
Continuous
100
AcDbPolyline
 90
        2
 70
     0
 43
0.0094134533962095
 10
0.0541125113118688
 20
1.061193796070155
 10
-0.0000000000062076
 20
1.061193796070155
  0
LWPOLYLINE
  5
10F
330
B9
100
AcDbEntity
  8
Nr. imobil
  6
Continuous
100
AcDbPolyline
 90
        2
 70
     0
 43
0.0094134533962095
 10
0.0552800001604018
 20
1.051853885281895
 10
-0.0000000000062076
 20
1.051853885281895
  0
LWPOLYLINE
  5
110
330
B9
100
AcDbEntity
  8
Nr. imobil
  6
Continuous
100
AcDbPolyline
 90
        2
 70
     0
 43
0.0094134533962095
 10
0.0564474890089348
 20
1.042513974486779
 10
-0.0000000000062076
 20
1.042513974486779
  0
LWPOLYLINE
  5
111
330
B9
100
AcDbEntity
  8
Nr. imobil
  6
Continuous
100
AcDbPolyline
 90
        2
 70
     0
 43
0.0094134533962095
 10
0.0576149778574678
 20
1.033174063698517
 10
-0.0000000000062076
 20
1.033174063698517
  0
LWPOLYLINE
  5
112
330
B9
100
AcDbEntity
  8
Nr. imobil
  6
Continuous
100
AcDbPolyline
 90
        2
 70
     0
 43
0.0094134533962095
 10
0.0587824667060009
 20
1.023834152903404
 10
-0.0000000000062076
 20
1.023834152903404
  0
LWPOLYLINE
  5
113
330
B9
100
AcDbEntity
  8
Nr. imobil
  6
Continuous
100
AcDbPolyline
 90
        2
 70
     0
 43
0.0094134533962095
 10
0.0599499555545339
 20
1.014494242115139
 10
-0.0000000000062076
 20
1.014494242115139
  0
LWPOLYLINE
  5
114
330
B9
100
AcDbEntity
  8
Nr. imobil
  6
Continuous
100
AcDbPolyline
 90
        2
 70
     0
 43
0.0094134533962095
 10
0.0611174444064914
 20
1.005154331320027
 10
-0.0000000000062076
 20
1.005154331320027
  0
LWPOLYLINE
  5
115
330
B9
100
AcDbEntity
  8
Nr. imobil
  6
Continuous
100
AcDbPolyline
 90
        2
 70
     0
 43
0.0094134533962095
 10
0.0622849332550244
 20
0.9958144205317632
 10
-0.0000000000062076
 20
0.9958144205317632
  0
LWPOLYLINE
  5
116
330
B9
100
AcDbEntity
  8
Nr. imobil
  6
Continuous
100
AcDbPolyline
 90
        2
 70
     0
 43
0.0094134533962095
 10
0.0634524221035575
 20
0.9864745097366499
 10
-0.0000000000062076
 20
0.9864745097366499
  0
LWPOLYLINE
  5
117
330
B9
100
AcDbEntity
  8
Nr. imobil
  6
Continuous
100
AcDbPolyline
 90
        2
 70
     0
 43
0.0094134533962095
 10
0.0646199109520904
 20
0.9771345989483862
 10
-0.0000000000062076
 20
0.9771345989483862
  0
LWPOLYLINE
  5
118
330
B9
100
AcDbEntity
  8
Nr. imobil
  6
Continuous
100
AcDbPolyline
 90
        2
 70
     0
 43
0.0094134533962095
 10
0.0657873998006234
 20
0.9677946881532728
 10
-0.0000000000062076
 20
0.9677946881532728
  0
LWPOLYLINE
  5
119
330
B9
100
AcDbEntity
  8
Nr. imobil
  6
Continuous
100
AcDbPolyline
 90
        2
 70
     0
 43
0.0094134533962095
 10
0.0669548886491565
 20
0.958454777365009
 10
-0.0000000000062076
 20
0.958454777365009
  0
LWPOLYLINE
  5
11A
330
B9
100
AcDbEntity
  8
Nr. imobil
  6
Continuous
100
AcDbPolyline
 90
        2
 70
     0
 43
0.0094134533962095
 10
0.0681223774976894
 20
0.9491148665698958
 10
-0.0000000000062076
 20
0.9491148665698958
  0
LWPOLYLINE
  5
11B
330
B9
100
AcDbEntity
  8
Nr. imobil
  6
Continuous
100
AcDbPolyline
 90
        2
 70
     0
 43
0.0094134533962095
 10
0.0692898663462224
 20
0.9397749557816316
 10
-0.0000000000062076
 20
0.9397749557816316
  0
LWPOLYLINE
  5
11C
330
B9
100
AcDbEntity
  8
Nr. imobil
  6
Continuous
100
AcDbPolyline
 90
        2
 70
     0
 43
0.0094134533962095
 10
0.07045735519818
 20
0.9304350449933675
 10
-0.0000000000062076
 20
0.9304350449933675
  0
LWPOLYLINE
  5
11D
330
B9
100
AcDbEntity
  8
Nr. imobil
  6
Continuous
100
AcDbPolyline
 90
        2
 70
     0
 43
0.0094134533962095
 10
0.0716248440467131
 20
0.9210951341982543
 10
-0.0000000000062076
 20
0.9210951341982543
  0
LWPOLYLINE
  5
11E
330
B9
100
AcDbEntity
  8
Nr. imobil
  6
Continuous
100
AcDbPolyline
 90
        2
 70
     0
 43
0.0094134533962095
 10
0.072792332895246
 20
0.9117552234099903
 10
-0.0000000000062076
 20
0.9117552234099903
  0
LWPOLYLINE
  5
11F
330
B9
100
AcDbEntity
  8
Nr. imobil
  6
Continuous
100
AcDbPolyline
 90
        2
 70
     0
 43
0.0094134533962095
 10
0.073959821743779
 20
0.9024153126148771
 10
-0.0000000000062076
 20
0.9024153126148771
  0
LWPOLYLINE
  5
120
330
B9
100
AcDbEntity
  8
Nr. imobil
  6
Continuous
100
AcDbPolyline
 90
        2
 70
     0
 43
0.0094134533962095
 10
0.075127310592312
 20
0.8930754018266132
 10
-0.0000000000062076
 20
0.8930754018266132
  0
LWPOLYLINE
  5
121
330
B9
100
AcDbEntity
  8
Nr. imobil
  6
Continuous
100
AcDbPolyline
 90
        2
 70
     0
 43
0.0094134533962095
 10
0.0762947994408451
 20
0.8837354910314999
 10
-0.0000000000062076
 20
0.8837354910314999
  0
LWPOLYLINE
  5
122
330
B9
100
AcDbEntity
  8
Nr. imobil
  6
Continuous
100
AcDbPolyline
 90
        2
 70
     0
 43
0.0094134533962095
 10
0.0774622882893781
 20
0.874395580243236
 10
-0.0000000000062076
 20
0.874395580243236
  0
LWPOLYLINE
  5
123
330
B9
100
AcDbEntity
  8
Nr. imobil
  6
Continuous
100
AcDbPolyline
 90
        2
 70
     0
 43
0.0094134533962095
 10
0.078629777137911
 20
0.8650556694481227
 10
-0.0000000000062076
 20
0.8650556694481227
  0
LWPOLYLINE
  5
124
330
B9
100
AcDbEntity
  8
Nr. imobil
  6
Continuous
100
AcDbPolyline
 90
        2
 70
     0
 43
0.0094134533962095
 10
0.0797972659898687
 20
0.8557157586598588
 10
-0.0000000000062076
 20
0.8557157586598588
  0
LWPOLYLINE
  5
125
330
B9
100
AcDbEntity
  8
Nr. imobil
  6
Continuous
100
AcDbPolyline
 90
        2
 70
     0
 43
0.0094134533962095
 10
0.0809647548384017
 20
0.8463758478647458
 10
-0.0000000000062076
 20
0.8463758478647458
  0
LWPOLYLINE
  5
126
330
B9
100
AcDbEntity
  8
Nr. imobil
  6
Continuous
100
AcDbPolyline
 90
        2
 70
     0
 43
0.0094134533962095
 10
0.0821322436869347
 20
0.8370359370764816
 10
-0.0000000000062076
 20
0.8370359370764816
  0
LWPOLYLINE
  5
127
330
B9
100
AcDbEntity
  8
Nr. imobil
  6
Continuous
100
AcDbPolyline
 90
        2
 70
     0
 43
0.0094134533962095
 10
0.0832997325354677
 20
0.8276960262813684
 10
-0.0000000000062076
 20
0.8276960262813684
  0
LWPOLYLINE
  5
128
330
B9
100
AcDbEntity
  8
Nr. imobil
  6
Continuous
100
AcDbPolyline
 90
        2
 70
     0
 43
0.0094134533962095
 10
0.0844672213840007
 20
0.8183561154931043
 10
-0.0000000000062076
 20
0.8183561154931043
  0
LWPOLYLINE
  5
129
330
B9
100
AcDbEntity
  8
Nr. imobil
  6
Continuous
100
AcDbPolyline
 90
        2
 70
     0
 43
0.0094134533962095
 10
0.0856347102325337
 20
0.8090162046979912
 10
-0.0000000000062076
 20
0.8090162046979912
  0
LWPOLYLINE
  5
12A
330
B9
100
AcDbEntity
  8
Nr. imobil
  6
Continuous
100
AcDbPolyline
 90
        2
 70
     0
 43
0.0094134533962095
 10
0.0868021990810666
 20
0.7996762939097274
 10
-0.0000000000062076
 20
0.7996762939097274
  0
LWPOLYLINE
  5
12B
330
B9
100
AcDbEntity
  8
Nr. imobil
  6
Continuous
100
AcDbPolyline
 90
        2
 70
     0
 43
0.0094134533962095
 10
0.0879696879295997
 20
0.7903363831146141
 10
-0.0000000000062076
 20
0.7903363831146141
  0
LWPOLYLINE
  5
12C
330
B9
100
AcDbEntity
  8
Nr. imobil
  6
Continuous
100
AcDbPolyline
 90
        2
 70
     0
 43
0.0094134533962095
 10
0.0891371767781327
 20
0.7809964723263501
 10
-0.0000000000062076
 20
0.7809964723263501
  0
LWPOLYLINE
  5
12D
330
B9
100
AcDbEntity
  8
Nr. imobil
  6
Continuous
100
AcDbPolyline
 90
        2
 70
     0
 43
0.0094134533962095
 10
0.0903046656300903
 20
0.7716565615312369
 10
-0.0000000000062076
 20
0.7716565615312369
  0
LWPOLYLINE
  5
12E
330
B9
100
AcDbEntity
  8
Nr. imobil
  6
Continuous
100
AcDbPolyline
 90
        2
 70
     0
 43
0.0094134533962095
 10
0.0914721544786232
 20
0.7623166507429728
 10
-0.0000000000062076
 20
0.7623166507429728
  0
LWPOLYLINE
  5
12F
330
B9
100
AcDbEntity
  8
Nr. imobil
  6
Continuous
100
AcDbPolyline
 90
        2
 70
     0
 43
0.0094134533962095
 10
0.0926396433271563
 20
0.7529767399478599
 10
-0.0000000000062076
 20
0.7529767399478599
  0
LWPOLYLINE
  5
130
330
B9
100
AcDbEntity
  8
Nr. imobil
  6
Continuous
100
AcDbPolyline
 90
        2
 70
     0
 43
0.0094134533962095
 10
0.0938071321756893
 20
0.7436368291595957
 10
-0.0000000000062076
 20
0.7436368291595957
  0
LWPOLYLINE
  5
131
330
B9
100
AcDbEntity
  8
Nr. imobil
  6
Continuous
100
AcDbPolyline
 90
        2
 70
     0
 43
0.0094134533962095
 10
0.0949746210242223
 20
0.7342969183644824
 10
-0.0000000000062076
 20
0.7342969183644824
  0
LWPOLYLINE
  5
132
330
B9
100
AcDbEntity
  8
Nr. imobil
  6
Continuous
100
AcDbPolyline
 90
        2
 70
     0
 43
0.0094134533962095
 10
0.0961421098727553
 20
0.7249570075762187
 10
-0.0000000000062076
 20
0.7249570075762187
  0
LWPOLYLINE
  5
133
330
B9
100
AcDbEntity
  8
Nr. imobil
  6
Continuous
100
AcDbPolyline
 90
        2
 70
     0
 43
0.0094134533962095
 10
0.0973095987212883
 20
0.7156170967811052
 10
-0.0000000000062076
 20
0.7156170967811052
  0
LWPOLYLINE
  5
134
330
B9
100
AcDbEntity
  8
Nr. imobil
  6
Continuous
100
AcDbPolyline
 90
        2
 70
     0
 43
0.0094134533962095
 10
0.0984770875698213
 20
0.7062771859928413
 10
-0.0000000000062076
 20
0.7062771859928413
  0
LWPOLYLINE
  5
135
330
B9
100
AcDbEntity
  8
Nr. imobil
  6
Continuous
100
AcDbPolyline
 90
        2
 70
     0
 43
0.0094134533962095
 10
0.0996445764217789
 20
0.6969372752045773
 10
-0.0000000000062076
 20
0.6969372752045773
  0
LWPOLYLINE
  5
136
330
B9
100
AcDbEntity
  8
Nr. imobil
  6
Continuous
100
AcDbPolyline
 90
        2
 70
     0
 43
0.0094134533962095
 10
0.1008120652703118
 20
0.6875973644094641
 10
-0.0000000000062076
 20
0.6875973644094641
  0
LWPOLYLINE
  5
137
330
B9
100
AcDbEntity
  8
Nr. imobil
  6
Continuous
100
AcDbPolyline
 90
        2
 70
     0
 43
0.0094134533962095
 10
0.1019795541188448
 20
0.6782574536212001
 10
-0.0000000000062076
 20
0.6782574536212001
  0
LWPOLYLINE
  5
138
330
B9
100
AcDbEntity
  8
Nr. imobil
  6
Continuous
100
AcDbPolyline
 90
        2
 70
     0
 43
0.0094134533962095
 10
0.1031470429673779
 20
0.6689175428260869
 10
-0.0000000000062076
 20
0.6689175428260869
  0
LWPOLYLINE
  5
139
330
B9
100
AcDbEntity
  8
Nr. imobil
  6
Continuous
100
AcDbPolyline
 90
        2
 70
     0
 43
0.0094134533962095
 10
0.1043145318159109
 20
0.6595776320378228
 10
-0.0000000000062076
 20
0.6595776320378228
  0
LWPOLYLINE
  5
13A
330
B9
100
AcDbEntity
  8
Nr. imobil
  6
Continuous
100
AcDbPolyline
 90
        2
 70
     0
 43
0.0094134533962095
 10
0.1054820206644438
 20
0.6502377212427099
 10
-0.0000000000062076
 20
0.6502377212427099
  0
LWPOLYLINE
  5
13B
330
B9
100
AcDbEntity
  8
Nr. imobil
  6
Continuous
100
AcDbPolyline
 90
        2
 70
     0
 43
0.0094134533962095
 10
0.1066495095129769
 20
0.6408978104544456
 10
-0.0000000000062076
 20
0.6408978104544456
  0
LWPOLYLINE
  5
13C
330
B9
100
AcDbEntity
  8
Nr. imobil
  6
Continuous
100
AcDbPolyline
 90
        2
 70
     0
 43
0.0094134533962095
 10
0.1078169983615098
 20
0.6315578996593324
 10
-0.0000000000062076
 20
0.6315578996593324
  0
LWPOLYLINE
  5
13D
330
B9
100
AcDbEntity
  8
Nr. imobil
  6
Continuous
100
AcDbPolyline
 90
        2
 70
     0
 43
0.0094134533962095
 10
0.1089844872134674
 20
0.6222179888710686
 10
-0.0000000000062076
 20
0.6222179888710686
  0
LWPOLYLINE
  5
13E
330
B9
100
AcDbEntity
  8
Nr. imobil
  6
Continuous
100
AcDbPolyline
 90
        2
 70
     0
 43
0.0094134533962095
 10
0.1101519760620004
 20
0.6128780780759552
 10
-0.0000000000062076
 20
0.6128780780759552
  0
LWPOLYLINE
  5
13F
330
B9
100
AcDbEntity
  8
Nr. imobil
  6
Continuous
100
AcDbPolyline
 90
        2
 70
     0
 43
0.0094134533962095
 10
0.1113194649105335
 20
0.6035381672876912
 10
0.0040222317031621
 20
0.6035381672876912
  0
LWPOLYLINE
  5
140
330
B9
100
AcDbEntity
  8
Nr. imobil
  6
Continuous
100
AcDbPolyline
 90
        2
 70
     0
 43
0.0094134533962095
 10
0.1124869537590664
 20
0.5941982564925781
 10
0.0086921871007187
 20
0.5941982564925781
  0
LWPOLYLINE
  5
141
330
B9
100
AcDbEntity
  8
Nr. imobil
  6
Continuous
100
AcDbPolyline
 90
        2
 70
     0
 43
0.0094134533962095
 10
0.1136544426075994
 20
0.5848583457043139
 10
0.0133621424948507
 20
0.5848583457043139
  0
LWPOLYLINE
  5
142
330
B9
100
AcDbEntity
  8
Nr. imobil
  6
Continuous
100
AcDbPolyline
 90
        2
 70
     0
 43
0.0094134533962095
 10
0.1148219314561325
 20
0.5755184349092009
 10
0.0180320978924073
 20
0.5755184349092009
  0
LWPOLYLINE
  5
143
330
B9
100
AcDbEntity
  8
Nr. imobil
  6
Continuous
100
AcDbPolyline
 90
        2
 70
     0
 43
0.0094134533962095
 10
0.1159894203046655
 20
0.5661785241209368
 10
0.0227020532865393
 20
0.5661785241209368
  0
LWPOLYLINE
  5
144
330
B9
100
AcDbEntity
  8
Nr. imobil
  6
Continuous
100
AcDbPolyline
 90
        2
 70
     0
 43
0.0094134533962095
 10
0.1171569091531984
 20
0.5568386133258235
 10
0.0273720086840959
 20
0.5568386133258235
  0
LWPOLYLINE
  5
145
330
B9
100
AcDbEntity
  8
Nr. imobil
  6
Continuous
100
AcDbPolyline
 90
        2
 70
     0
 43
0.0094134533962095
 10
0.118324398005156
 20
0.5474987025375599
 10
0.0320419640782279
 20
0.5474987025375599
  0
LWPOLYLINE
  5
146
330
B9
100
AcDbEntity
  8
Nr. imobil
  6
Continuous
100
AcDbPolyline
 90
        2
 70
     0
 43
0.0094134533962095
 10
0.119491886853689
 20
0.5381587917424464
 10
0.0367119194723599
 20
0.5381587917424464
  0
LWPOLYLINE
  5
147
330
B9
100
AcDbEntity
  8
Nr. imobil
  6
Continuous
100
AcDbPolyline
 90
        2
 70
     0
 43
0.0094134533962095
 10
0.1206593757022221
 20
0.5288188809541824
 10
0.0413818748699165
 20
0.5288188809541824
  0
LWPOLYLINE
  5
148
330
B9
100
AcDbEntity
  8
Nr. imobil
  6
Continuous
100
AcDbPolyline
 90
        2
 70
     0
 43
0.0094134533962095
 10
0.1218268645507551
 20
0.5194789701590692
 10
0.0460518302640485
 20
0.5194789701590692
  0
LWPOLYLINE
  5
149
330
B9
100
AcDbEntity
  8
Nr. imobil
  6
Continuous
100
AcDbPolyline
 90
        2
 70
     0
 43
0.0094134533962095
 10
0.1229943533992881
 20
0.5101390593708051
 10
0.0507217856616051
 20
0.5101390593708051
  0
LWPOLYLINE
  5
14A
330
B9
100
AcDbEntity
  8
Nr. imobil
  6
Continuous
100
AcDbPolyline
 90
        2
 70
     0
 43
0.0094134533962095
 10
0.124161842247821
 20
0.5007991485756921
 10
0.0553917410557371
 20
0.5007991485756921
  0
LWPOLYLINE
  5
14B
330
B9
100
AcDbEntity
  8
Nr. imobil
  6
Continuous
100
AcDbPolyline
 90
        2
 70
     0
 43
0.0094134533962095
 10
0.125329331096354
 20
0.491459237787428
 10
0.0600616964532937
 20
0.491459237787428
  0
LWPOLYLINE
  5
14C
330
B9
100
AcDbEntity
  8
Nr. imobil
  6
Continuous
100
AcDbPolyline
 90
        2
 70
     0
 43
0.0094134533962095
 10
0.1264968199448871
 20
0.4821193269923148
 10
0.0647316518474257
 20
0.4821193269923148
  0
LWPOLYLINE
  5
14D
330
B9
100
AcDbEntity
  8
Nr. imobil
  6
Continuous
100
AcDbPolyline
 90
        2
 70
     0
 43
0.0094134533962095
 10
0.1276643087934201
 20
0.4727794162040508
 10
0.0694016072449823
 20
0.4727794162040508
  0
LWPOLYLINE
  5
14E
330
B9
100
AcDbEntity
  8
Nr. imobil
  6
Continuous
100
AcDbPolyline
 90
        2
 70
     0
 43
0.0094134533962095
 10
0.1288317976453777
 20
0.4634395054157868
 10
0.0740715626391143
 20
0.4634395054157868
  0
LWPOLYLINE
  5
14F
330
B9
100
AcDbEntity
  8
Nr. imobil
  6
Continuous
100
AcDbPolyline
 90
        2
 70
     0
 43
0.0094134533962095
 10
0.1299992864939107
 20
0.4540995946206735
 10
0.0787415180332463
 20
0.4540995946206735
  0
LWPOLYLINE
  5
150
330
B9
100
AcDbEntity
  8
Nr. imobil
  6
Continuous
100
AcDbPolyline
 90
        2
 70
     0
 43
0.0094134533962095
 10
0.1311667753424437
 20
0.4447596838324098
 10
0.0834114734308029
 20
0.4447596838324098
  0
LWPOLYLINE
  5
151
330
B9
100
AcDbEntity
  8
Nr. imobil
  6
Continuous
100
AcDbPolyline
 90
        2
 70
     0
 43
0.0094134533962095
 10
0.1323342641909766
 20
0.4354197730372963
 10
0.0880814288249349
 20
0.4354197730372963
  0
LWPOLYLINE
  5
152
330
B9
100
AcDbEntity
  8
Nr. imobil
  6
Continuous
100
AcDbPolyline
 90
        2
 70
     0
 43
0.0094134533962095
 10
0.1335017530395097
 20
0.4260798622490324
 10
0.0927513842224915
 20
0.4260798622490324
  0
LWPOLYLINE
  5
153
330
B9
100
AcDbEntity
  8
Nr. imobil
  6
Continuous
100
AcDbPolyline
 90
        2
 70
     0
 43
0.0094134533962095
 10
0.1346692418880427
 20
0.4167399514539192
 10
0.0974213396166235
 20
0.4167399514539192
  0
LWPOLYLINE
  5
154
330
B9
100
AcDbEntity
  8
Nr. imobil
  6
Continuous
100
AcDbPolyline
 90
        2
 70
     0
 43
0.0094134533962095
 10
0.1358367307365756
 20
0.407400040665655
 10
0.1020912950141801
 20
0.407400040665655
  0
LWPOLYLINE
  5
155
330
B9
100
AcDbEntity
  8
Nr. imobil
  6
Continuous
100
AcDbPolyline
 90
        2
 70
     0
 43
0.0094134533962095
 10
0.1370042195851087
 20
0.3980601298705419
 10
0.1067612504083121
 20
0.3980601298705419
  0
LWPOLYLINE
  5
156
330
B9
100
AcDbEntity
  8
Nr. imobil
  6
Continuous
100
AcDbPolyline
 90
        2
 70
     0
 43
0.0094134533962095
 10
0.1381717084370662
 20
0.3887202190822778
 10
0.1114312058058687
 20
0.3887202190822778
  0
LWPOLYLINE
  5
157
330
B9
100
AcDbEntity
  8
Nr. imobil
  6
Continuous
100
AcDbPolyline
 90
        2
 70
     0
 43
0.0094134533962095
 10
0.1393391972855993
 20
0.3793803082871647
 10
0.1161011612000007
 20
0.3793803082871647
  0
LWPOLYLINE
  5
158
330
B9
100
AcDbEntity
  8
Nr. imobil
  6
Continuous
100
AcDbPolyline
 90
        2
 70
     0
 43
0.0094134533962095
 10
0.1405066861341322
 20
0.3700403974989006
 10
0.1207711165975573
 20
0.3700403974989006
  0
LWPOLYLINE
  5
159
330
B9
100
AcDbEntity
  8
Nr. imobil
  6
Continuous
100
AcDbPolyline
 90
        2
 70
     0
 43
0.0094134533962095
 10
0.1416741749826653
 20
0.3607004867037875
 10
0.1254410719916893
 20
0.3607004867037875
  0
LWPOLYLINE
  5
15A
330
B9
100
AcDbEntity
  8
Nr. imobil
  6
Continuous
100
AcDbPolyline
 90
        2
 70
     0
 43
0.0094134533962095
 10
0.1428416638311983
 20
0.3513605759155235
 10
0.1301110273858213
 20
0.3513605759155235
  0
LWPOLYLINE
  5
15B
330
B9
100
AcDbEntity
  8
Nr. imobil
  6
Continuous
100
AcDbPolyline
 90
        2
 70
     0
 43
0.0094134533962095
 10
0.1440091526797313
 20
0.3420206651204103
 10
0.1347809827833779
 20
0.3420206651204103
  0
LWPOLYLINE
  5
15C
330
B9
100
AcDbEntity
  8
Nr. imobil
  6
Continuous
100
AcDbPolyline
 90
        2
 70
     0
 43
0.0094134533962095
 10
0.1451766415282643
 20
0.3326807543321463
 10
0.1394509381775099
 20
0.3326807543321463
  0
LWPOLYLINE
  5
15D
330
B9
100
AcDbEntity
  8
Nr. imobil
  6
Continuous
100
AcDbPolyline
 90
        2
 70
     0
 43
0.0094134533962095
 10
0.1463441303767973
 20
0.3233408435370331
 10
0.1441208935750665
 20
0.3233408435370331
  0
LWPOLYLINE
  5
15E
330
B9
100
AcDbEntity
  8
Nr. imobil
  6
Continuous
100
AcDbPolyline
 90
        2
 70
     0
 43
0.0094134533962095
 10
0.0015755131073362
 20
1.481489781692721
 10
-0.0000000000062076
 20
1.481489781692721
  0
LWPOLYLINE
  5
15F
330
B9
100
AcDbEntity
  8
Nr. imobil
  6
Continuous
100
AcDbPolyline
 90
        2
 70
     0
 43
0.0094134533962095
 10
0.0027430019558692
 20
1.472149870897608
 10
-0.0000000000062076
 20
1.472149870897608
  0
LWPOLYLINE
  5
160
330
B9
100
AcDbEntity
  8
Nr. imobil
  6
Continuous
100
AcDbPolyline
 90
        2
 70
     0
 43
0.0094134533962095
 10
0.0039104908078268
 20
1.462809960109344
 10
-0.0000000000062076
 20
1.462809960109344
  0
LWPOLYLINE
  5
161
330
B9
100
AcDbEntity
  8
Nr. imobil
  6
Continuous
100
AcDbPolyline
 90
        2
 70
     0
 43
0.0094134533962095
 10
0.0050779796563598
 20
1.453470049314231
 10
-0.0000000000062076
 20
1.453470049314231
  0
LWPOLYLINE
  5
162
330
B9
100
AcDbEntity
  8
Nr. imobil
  6
Continuous
100
AcDbPolyline
 90
        2
 70
     0
 43
0.0094134533962095
 10
0.0062454685048928
 20
1.444130138525965
 10
-0.0000000000062076
 20
1.444130138525965
  0
ENDBLK
  5
163
330
B9
100
AcDbEntity
  8
0
100
AcDbBlockEnd
  0
BLOCK
  5
1D5
330
1D4
100
AcDbEntity
  8
0
100
AcDbBlockBegin
  2
ID
 70
     2
 10
0.0
 20
0.0
 30
0.0
  3
ID
  1

  0
ATTDEF
  5
1D6
102
{ACAD_XDICTIONARY
360
1D7
102
}
330
1D4
100
AcDbEntity
  8
0
100
AcDbText
 10
-3.804408904747106
 20
-1.795066495076753
 30
0.0
 40
4.5
  1

 50
359.5963903652307
  7
ROMANC
100
AcDbAttributeDefinition
  3

  2
ID
 70
     0
1001
AcadAnnotative
1000
AnnotativeData
1002
{
1070
     1
1070
     1
1002
}
1001
AcDbAttr
1070
     0
1070
     1
  0
ENDBLK
  5
1D9
330
1D4
100
AcDbEntity
  8
0
100
AcDbBlockEnd
  0
BLOCK
  5
1DC
330
1DA
100
AcDbEntity
  8
0
 62
     2
100
AcDbBlockBegin
  2
*U3
 70
     1
 10
0.0
 20
0.0
 30
0.0
  3
*U3
  1

  0
INSERT
  5
1DD
330
1DA
100
AcDbEntity
  8
0
100
AcDbBlockReference
 66
     1
  2
ID
 10
474999.1951501311
 20
621355.5475956344
 30
0.0
  0
ATTRIB
  5
1DE
102
{ACAD_XDICTIONARY
360
1DF
102
}
330
1DD
100
AcDbEntity
  8
0 @ 1
100
AcDbText
 10
474995.3907412264
 20
621353.7525291394
 30
0.0
 40
4.5
  1
1701
 50
359.5963903652307
  7
ROMANC
100
AcDbAttribute
  2
ID
 70
     0
1001
AcadAnnotative
1000
AnnotativeData
1002
{
1070
     1
1070
     0
1002
}
1001
AcDbAttr
1070
     0
1070
     1
  0
SEQEND
  5
1E1
330
1DD
100
AcDbEntity
  8
0
  0
ENDBLK
  5
1E2
330
1DA
100
AcDbEntity
  8
0
 62
     2
100
AcDbBlockEnd
  0
BLOCK
  5
2AC
330
2AA
100
AcDbEntity
  8
0
 62
     2
100
AcDbBlockBegin
  2
*U4
 70
     1
 10
0.0
 20
0.0
 30
0.0
  3
*U4
  1

  0
INSERT
  5
2AD
330
2AA
100
AcDbEntity
  8
0
100
AcDbBlockReference
 66
     1
  2
ID
 10
474831.1952017597
 20
620967.2084768492
 30
0.0
  0
ATTRIB
  5
2AE
102
{ACAD_XDICTIONARY
360
2AF
102
}
330
2AD
100
AcDbEntity
  8
0 @ 1
100
AcDbText
 10
474827.3907928548
 20
620965.4134103541
 30
0.0
 40
4.5
  1
1F
 50
359.5963903652307
  7
ROMANC
100
AcDbAttribute
  2
ID
 70
     0
1001
AcadAnnotative
1000
AnnotativeData
1002
{
1070
     1
1070
     0
1002
}
1001
AcDbAttr
1070
     0
1070
     1
  0
SEQEND
  5
2B1
330
2AD
100
AcDbEntity
  8
0
  0
ENDBLK
  5
2B2
330
2AA
100
AcDbEntity
  8
0
 62
     2
100
AcDbBlockEnd
  0
BLOCK
  5
2B5
330
2B3
100
AcDbEntity
  8
0
 62
     2
100
AcDbBlockBegin
  2
*U5
 70
     1
 10
0.0
 20
0.0
 30
0.0
  3
*U5
  1

  0
INSERT
  5
2B6
330
2B3
100
AcDbEntity
  8
0
100
AcDbBlockReference
 66
     1
  2
ID
 10
474690.5725732155
 20
621206.6301541941
 30
0.0
  0
ATTRIB
  5
2B7
102
{ACAD_XDICTIONARY
360
2B8
102
}
330
2B6
100
AcDbEntity
  8
0 @ 1
100
AcDbText
 10
474686.7681643108
 20
621204.835087699
 30
0.0
 40
4.5
  1
1F
 50
359.5963903652307
  7
ROMANC
100
AcDbAttribute
  2
ID
 70
     0
1001
AcadAnnotative
1000
AnnotativeData
1002
{
1070
     1
1070
     0
1002
}
1001
AcDbAttr
1070
     0
1070
     1
  0
SEQEND
  5
2BA
330
2B6
100
AcDbEntity
  8
0
  0
ENDBLK
  5
2BB
330
2B3
100
AcDbEntity
  8
0
 62
     2
100
AcDbBlockEnd
  0
BLOCK
  5
2BE
330
2BC
100
AcDbEntity
  8
0
 62
     2
100
AcDbBlockBegin
  2
*U6
 70
     1
 10
0.0
 20
0.0
 30
0.0
  3
*U6
  1

  0
INSERT
  5
2BF
330
2BC
100
AcDbEntity
  8
0
100
AcDbBlockReference
 66
     1
  2
ID
 10
474585.6048528017
 20
621296.3896797785
 30
0.0
  0
ATTRIB
  5
2C0
102
{ACAD_XDICTIONARY
360
2C1
102
}
330
2BF
100
AcDbEntity
  8
0 @ 1
100
AcDbText
 10
474581.8004438969
 20
621294.5946132834
 30
0.0
 40
4.5
  1
1F
 50
359.5963903652307
  7
ROMANC
100
AcDbAttribute
  2
ID
 70
     0
1001
AcadAnnotative
1000
AnnotativeData
1002
{
1070
     1
1070
     0
1002
}
1001
AcDbAttr
1070
     0
1070
     1
  0
SEQEND
  5
2C3
330
2BF
100
AcDbEntity
  8
0
  0
ENDBLK
  5
2C4
330
2BC
100
AcDbEntity
  8
0
 62
     2
100
AcDbBlockEnd
  0
BLOCK
  5
2C7
330
2C5
100
AcDbEntity
  8
0
 62
     2
100
AcDbBlockBegin
  2
*U7
 70
     1
 10
0.0
 20
0.0
 30
0.0
  3
*U7
  1

  0
INSERT
  5
2C8
330
2C5
100
AcDbEntity
  8
0
100
AcDbBlockReference
 66
     1
  2
ID
 10
474578.1750706488
 20
621323.579025842
 30
0.0
  0
ATTRIB
  5
2C9
102
{ACAD_XDICTIONARY
360
2CA
102
}
330
2C8
100
AcDbEntity
  8
0 @ 1
100
AcDbText
 10
474574.3706617441
 20
621321.7839593468
 30
0.0
 40
4.5
  1
1F
 50
359.5963903652307
  7
ROMANC
100
AcDbAttribute
  2
ID
 70
     0
1001
AcadAnnotative
1000
AnnotativeData
1002
{
1070
     1
1070
     0
1002
}
1001
AcDbAttr
1070
     0
1070
     1
  0
SEQEND
  5
2CC
330
2C8
100
AcDbEntity
  8
0
  0
ENDBLK
  5
2CD
330
2C5
100
AcDbEntity
  8
0
 62
     2
100
AcDbBlockEnd
  0
BLOCK
  5
2D0
330
2CE
100
AcDbEntity
  8
0
 62
     2
100
AcDbBlockBegin
  2
*U8
 70
     1
 10
0.0
 20
0.0
 30
0.0
  3
*U8
  1

  0
INSERT
  5
2D1
330
2CE
100
AcDbEntity
  8
0
100
AcDbBlockReference
 66
     1
  2
ID
 10
474712.7755480017
 20
621352.7146960527
 30
0.0
  0
ATTRIB
  5
2D2
102
{ACAD_XDICTIONARY
360
2D3
102
}
330
2D1
100
AcDbEntity
  8
0 @ 1
100
AcDbText
 10
474708.971139097
 20
621350.9196295578
 30
0.0
 40
4.5
  1
1F
 50
359.5963903652307
  7
ROMANC
100
AcDbAttribute
  2
ID
 70
     0
1001
AcadAnnotative
1000
AnnotativeData
1002
{
1070
     1
1070
     0
1002
}
1001
AcDbAttr
1070
     0
1070
     1
  0
SEQEND
  5
2D5
330
2D1
100
AcDbEntity
  8
0
  0
ENDBLK
  5
2D6
330
2CE
100
AcDbEntity
  8
0
 62
     2
100
AcDbBlockEnd
  0
BLOCK
  5
2D9
330
2D7
100
AcDbEntity
  8
0
 62
     2
100
AcDbBlockBegin
  2
*U9
 70
     1
 10
0.0
 20
0.0
 30
0.0
  3
*U9
  1

  0
INSERT
  5
2DA
330
2D7
100
AcDbEntity
  8
0
100
AcDbBlockReference
 66
     1
  2
ID
 10
474843.1753732272
 20
621342.3158390567
 30
0.0
 50
23.30650241309105
  0
ATTRIB
  5
2DB
102
{ACAD_XDICTIONARY
360
2DC
102
}
330
2DA
100
AcDbEntity
  8
0 @ 1
100
AcDbText
 10
474840.3916160172
 20
621339.1620339533
 30
0.0
 40
4.5
  1
1DR
 50
22.90289277831029
  7
ROMANC
100
AcDbAttribute
  2
ID
 70
     0
1001
AcadAnnotative
1000
AnnotativeData
1002
{
1070
     1
1070
     0
1002
}
1001
AcDbAttr
1070
     0
1070
     1
  0
SEQEND
  5
2DE
330
2DA
100
AcDbEntity
  8
0
  0
ENDBLK
  5
2DF
330
2D7
100
AcDbEntity
  8
0
 62
     2
100
AcDbBlockEnd
  0
BLOCK
  5
2E2
330
2E0
100
AcDbEntity
  8
0
 62
     2
100
AcDbBlockBegin
  2
*U10
 70
     1
 10
0.0
 20
0.0
 30
0.0
  3
*U10
  1

  0
INSERT
  5
2E3
330
2E0
100
AcDbEntity
  8
0
100
AcDbBlockReference
 66
     1
  2
ID
 10
474894.2444767578
 20
621214.4629022174
 30
0.0
  0
ATTRIB
  5
2E4
102
{ACAD_XDICTIONARY
360
2E5
102
}
330
2E3
100
AcDbEntity
  8
0 @ 1
100
AcDbText
 10
474890.4400678531
 20
621212.6678357225
 30
0.0
 40
4.5
  1
1P
 50
359.5963903652307
  7
ROMANC
100
AcDbAttribute
  2
ID
 70
     0
1001
AcadAnnotative
1000
AnnotativeData
1002
{
1070
     1
1070
     0
1002
}
1001
AcDbAttr
1070
     0
1070
     1
  0
SEQEND
  5
2E7
330
2E3
100
AcDbEntity
  8
0
  0
ENDBLK
  5
2E8
330
2E0
100
AcDbEntity
  8
0
 62
     2
100
AcDbBlockEnd
  0
BLOCK
  5
2EB
330
2E9
100
AcDbEntity
  8
0
 62
     2
100
AcDbBlockBegin
  2
*U11
 70
     1
 10
0.0
 20
0.0
 30
0.0
  3
*U11
  1

  0
INSERT
  5
2EC
330
2E9
100
AcDbEntity
  8
0
100
AcDbBlockReference
 66
     1
  2
ID
 10
474963.02401639
 20
621287.5399155018
 30
0.0
 50
321.4130040691347
  0
ATTRIB
  5
2ED
102
{ACAD_XDICTIONARY
360
2EE
102
}
330
2EC
100
AcDbEntity
  8
0 @ 1
100
AcDbText
 10
474958.9306673962
 20
621288.5095983626
 30
0.0
 40
4.5
  1
1F
 50
321.0093944345886
  7
ROMANC
100
AcDbAttribute
  2
ID
 70
     0
1001
AcadAnnotative
1000
AnnotativeData
1002
{
1070
     1
1070
     0
1002
}
1001
AcDbAttr
1070
     0
1070
     1
  0
SEQEND
  5
2F0
330
2EC
100
AcDbEntity
  8
0
  0
ENDBLK
  5
2F1
330
2E9
100
AcDbEntity
  8
0
 62
     2
100
AcDbBlockEnd
  0
BLOCK
  5
2F4
330
2F2
100
AcDbEntity
  8
0
 62
     2
100
AcDbBlockBegin
  2
*U12
 70
     1
 10
0.0
 20
0.0
 30
0.0
  3
*U12
  1

  0
INSERT
  5
2F5
330
2F2
100
AcDbEntity
  8
0
100
AcDbBlockReference
 66
     1
  2
ID
 10
475045.705159095
 20
621293.2091291342
 30
0.0
  0
ATTRIB
  5
2F6
102
{ACAD_XDICTIONARY
360
2F7
102
}
330
2F5
100
AcDbEntity
  8
0 @ 1
100
AcDbText
 10
475041.9007501903
 20
621291.4140626391
 30
0.0
 40
4.5
  1
1F
 50
359.5963903652307
  7
ROMANC
100
AcDbAttribute
  2
ID
 70
     0
1001
AcadAnnotative
1000
AnnotativeData
1002
{
1070
     1
1070
     0
1002
}
1001
AcDbAttr
1070
     0
1070
     1
  0
SEQEND
  5
2F9
330
2F5
100
AcDbEntity
  8
0
  0
ENDBLK
  5
2FA
330
2F2
100
AcDbEntity
  8
0
 62
     2
100
AcDbBlockEnd
  0
BLOCK
  5
2FD
330
2FB
100
AcDbEntity
  8
0
 62
     2
100
AcDbBlockBegin
  2
*U13
 70
     1
 10
0.0
 20
0.0
 30
0.0
  3
*U13
  1

  0
INSERT
  5
2FE
330
2FB
100
AcDbEntity
  8
0
100
AcDbBlockReference
 66
     1
  2
ID
 10
474816.2986881001
 20
621443.7785538996
 30
0.0
 50
312.4663393834613
  0
ATTRIB
  5
2FF
102
{ACAD_XDICTIONARY
360
300
102
}
330
2FE
100
AcDbEntity
  8
0 @ 1
100
AcDbText
 10
474812.4059409099
 20
621445.3730162386
 30
0.0
 40
4.499999999999999
  1
1F
 50
312.0627297515706
  7
ROMANC
100
AcDbAttribute
  2
ID
 70
     0
1001
AcadAnnotative
1000
AnnotativeData
1002
{
1070
     1
1070
     0
1002
}
1001
AcDbAttr
1070
     0
1070
     1
  0
SEQEND
  5
302
330
2FE
100
AcDbEntity
  8
0
  0
ENDBLK
  5
303
330
2FB
100
AcDbEntity
  8
0
 62
     2
100
AcDbBlockEnd
  0
BLOCK
  5
306
330
304
100
AcDbEntity
  8
0
 62
     2
100
AcDbBlockBegin
  2
*U14
 70
     1
 10
0.0
 20
0.0
 30
0.0
  3
*U14
  1

  0
INSERT
  5
307
330
304
100
AcDbEntity
  8
0
100
AcDbBlockReference
 66
     1
  2
ID
 10
474893.1718769664
 20
621496.6937639347
 30
0.0
  0
ATTRIB
  5
308
102
{ACAD_XDICTIONARY
360
309
102
}
330
307
100
AcDbEntity
  8
0 @ 1
100
AcDbText
 10
474889.3674680617
 20
621494.8986974396
 30
0.0
 40
4.5
  1
1F
 50
359.5963903652307
  7
ROMANC
100
AcDbAttribute
  2
ID
 70
     0
1001
AcadAnnotative
1000
AnnotativeData
1002
{
1070
     1
1070
     0
1002
}
1001
AcDbAttr
1070
     0
1070
     1
  0
SEQEND
  5
30B
330
307
100
AcDbEntity
  8
0
  0
ENDBLK
  5
30C
330
304
100
AcDbEntity
  8
0
 62
     2
100
AcDbBlockEnd
  0
BLOCK
  5
30F
330
30D
100
AcDbEntity
  8
0
 62
     2
100
AcDbBlockBegin
  2
*U15
 70
     1
 10
0.0
 20
0.0
 30
0.0
  3
*U15
  1

  0
INSERT
  5
310
330
30D
100
AcDbEntity
  8
0
100
AcDbBlockReference
 66
     1
  2
ID
 10
475210.7918818838
 20
621717.442893993
 30
0.0
  0
ATTRIB
  5
311
102
{ACAD_XDICTIONARY
360
312
102
}
330
310
100
AcDbEntity
  8
0 @ 1
100
AcDbText
 10
475206.987472979
 20
621715.6478274979
 30
0.0
 40
4.5
  1
1F
 50
359.5963903652307
  7
ROMANC
100
AcDbAttribute
  2
ID
 70
     0
1001
AcadAnnotative
1000
AnnotativeData
1002
{
1070
     1
1070
     0
1002
}
1001
AcDbAttr
1070
     0
1070
     1
  0
SEQEND
  5
314
330
310
100
AcDbEntity
  8
0
  0
ENDBLK
  5
315
330
30D
100
AcDbEntity
  8
0
 62
     2
100
AcDbBlockEnd
  0
BLOCK
  5
318
330
316
100
AcDbEntity
  8
0
 62
     2
100
AcDbBlockBegin
  2
*U16
 70
     1
 10
0.0
 20
0.0
 30
0.0
  3
*U16
  1

  0
INSERT
  5
319
330
316
100
AcDbEntity
  8
0
100
AcDbBlockReference
 66
     1
  2
ID
 10
475197.4058637633
 20
621771.6477605891
 30
0.0
  0
ATTRIB
  5
31A
102
{ACAD_XDICTIONARY
360
31B
102
}
330
319
100
AcDbEntity
  8
0 @ 1
100
AcDbText
 10
475193.6014548585
 20
621769.852694094
 30
0.0
 40
4.5
  1
1F
 50
359.5963903652307
  7
ROMANC
100
AcDbAttribute
  2
ID
 70
     0
1001
AcadAnnotative
1000
AnnotativeData
1002
{
1070
     1
1070
     0
1002
}
1001
AcDbAttr
1070
     0
1070
     1
  0
SEQEND
  5
31D
330
319
100
AcDbEntity
  8
0
  0
ENDBLK
  5
31E
330
316
100
AcDbEntity
  8
0
 62
     2
100
AcDbBlockEnd
  0
BLOCK
  5
321
330
31F
100
AcDbEntity
  8
0
 62
     2
100
AcDbBlockBegin
  2
*U17
 70
     1
 10
0.0
 20
0.0
 30
0.0
  3
*U17
  1

  0
INSERT
  5
322
330
31F
100
AcDbEntity
  8
0
100
AcDbBlockReference
 66
     1
  2
ID
 10
475320.0829590747
 20
621717.8787623279
 30
0.0
  0
ATTRIB
  5
323
102
{ACAD_XDICTIONARY
360
324
102
}
330
322
100
AcDbEntity
  8
0 @ 1
100
AcDbText
 10
475316.2785501699
 20
621716.0836958328
 30
0.0
 40
4.5
  1
1F
 50
359.5963903652307
  7
ROMANC
100
AcDbAttribute
  2
ID
 70
     0
1001
AcadAnnotative
1000
AnnotativeData
1002
{
1070
     1
1070
     0
1002
}
1001
AcDbAttr
1070
     0
1070
     1
  0
SEQEND
  5
326
330
322
100
AcDbEntity
  8
0
  0
ENDBLK
  5
327
330
31F
100
AcDbEntity
  8
0
 62
     2
100
AcDbBlockEnd
  0
BLOCK
  5
411
330
40C
100
AcDbEntity
  8
0
100
AcDbBlockBegin
  2
PUNCT
 70
     2
 10
0.0
 20
0.0
 30
0.0
  3
PUNCT
  1

  0
POINT
  5
40D
330
40C
100
AcDbEntity
  8
0
100
AcDbPoint
 10
0.0
 20
0.0
 30
0.0
  0
ATTDEF
  5
40E
330
40C
100
AcDbEntity
  8
0
100
AcDbText
 10
1.399999999999999
 20
0.0
 30
0.0
 40
1.5
  1

100
AcDbAttributeDefinition
  3
DenPct=
  2
DENPCT
 70
     1
  0
ATTDEF
  5
40F
330
40C
100
AcDbEntity
  8
0
100
AcDbText
 10
1.399999999999999
 20
-2.5
 30
0.0
 40
1.5
  1
0.000
100
AcDbAttributeDefinition
  3
Z=
  2
COTA
 70
     1
  0
ATTDEF
  5
410
330
40C
100
AcDbEntity
  8
0
100
AcDbText
 10
1.399999999999999
 20
-5.0
 30
0.0
 40
1.5
  1

100
AcDbAttributeDefinition
  3
Cod=
  2
COD
 70
     1
  0
ENDBLK
  5
412
330
40C
100
AcDbEntity
  8
0
100
AcDbBlockEnd
  0
BLOCK
  5
429
330
426
100
AcDbEntity
  8
0
100
AcDbBlockBegin
  2
CVCAN
 70
     0
 10
0.0
 20
0.0
 30
0.0
  3
CVCAN
  1

  0
CIRCLE
  5
427
330
426
100
AcDbEntity
  8
0
100
AcDbCircle
 10
0.0
 20
0.0
 30
0.0
 40
1.5
  0
TEXT
  5
428
330
426
100
AcDbEntity
  8
0
100
AcDbText
 10
-1.125
 20
-1.125
 30
0.0
 40
2.25
  1
C
  7
ROMANC
 72
     1
 11
0.0
 21
0.0
 31
0.0
100
AcDbText
 73
     2
  0
ENDBLK
  5
42A
330
426
100
AcDbEntity
  8
0
100
AcDbBlockEnd
  0
BLOCK
  5
433
330
42C
100
AcDbEntity
  8
0
100
AcDbBlockBegin
  2
GAGER
 70
     0
 10
0.0
 20
0.0
 30
0.0
  3
GAGER
  1

  0
LINE
  5
42D
330
42C
100
AcDbEntity
  8
0
100
AcDbLine
 10
1.999999999767169
 20
-0.5000000001164154
 30
0.0
 11
-2.0
 21
-0.5000000001164154
 31
0.0
  0
LINE
  5
42E
330
42C
100
AcDbEntity
  8
0
100
AcDbLine
 10
2.0
 20
0.4999999998835847
 30
0.0
 11
-2.0
 21
0.4999999998835847
 31
0.0
  0
LINE
  5
42F
330
42C
100
AcDbEntity
  8
0
100
AcDbLine
 10
-2.0
 20
-0.5000000001164154
 30
0.0
 11
-1.999999999767169
 21
0.5
 31
0.0
  0
LINE
  5
430
330
42C
100
AcDbEntity
  8
0
100
AcDbLine
 10
1.0
 20
-0.5000000001164154
 30
0.0
 11
1.0
 21
0.5
 31
0.0
  0
LINE
  5
431
330
42C
100
AcDbEntity
  8
0
100
AcDbLine
 10
-1.0
 20
-0.5000000001164154
 30
0.0
 11
-1.0
 21
0.5
 31
0.0
  0
LINE
  5
432
330
42C
100
AcDbEntity
  8
0
100
AcDbLine
 10
2.0
 20
-0.5000000001164154
 30
0.0
 11
2.00000000023283
 21
0.5
 31
0.0
  0
ENDBLK
  5
434
330
42C
100
AcDbEntity
  8
0
100
AcDbBlockEnd
  0
BLOCK
  5
43C
330
436
100
AcDbEntity
  8
0
100
AcDbBlockBegin
  2
HIDRANT
 70
     0
 10
0.0
 20
0.0
 30
0.0
  3
HIDRANT
  1

  0
TEXT
  5
437
330
436
100
AcDbEntity
  8
0
100
AcDbText
 10
0.9447380541823804
 20
0.8098756927065551
 30
0.0
 40
1.5
  1
H
  7
ROMANC
100
AcDbText
  0
LINE
  5
438
330
436
100
AcDbEntity
  8
0
100
AcDbLine
 10
0.0
 20
0.5999999999767171
 30
0.0
 11
0.0
 21
1.199999999953432
 31
0.0
  0
LINE
  5
439
330
436
100
AcDbEntity
  8
0
100
AcDbLine
 10
0.5999466634821147
 20
1.199999999953432
 30
0.0
 11
-0.6000000000931323
 21
1.199999999953432
 31
0.0
  0
CIRCLE
  5
43A
330
436
100
AcDbEntity
  8
0
100
AcDbCircle
 10
0.0
 20
0.0
 30
0.0
 40
0.6
  0
LINE
  5
43B
330
436
100
AcDbEntity
  8
0
100
AcDbLine
 10
-0.6
 20
0.0
 30
0.0
 11
0.6
 21
0.0
 31
0.0
  0
ENDBLK
  5
43D
330
436
100
AcDbEntity
  8
0
100
AcDbBlockEnd
  0
BLOCK
  5
442
330
43F
100
AcDbEntity
  8
0
100
AcDbBlockBegin
  2
CVGAZE
 70
     0
 10
0.0
 20
0.0
 30
0.0
  3
CVGAZE
  1

  0
TEXT
  5
440
330
43F
100
AcDbEntity
  8
0
100
AcDbText
 10
-1.285714285714285
 20
-1.125
 30
0.0
 40
2.25
  1
G
  7
ROMANC
 72
     1
 11
0.0
 21
0.0
 31
0.0
100
AcDbText
 73
     2
  0
CIRCLE
  5
441
330
43F
100
AcDbEntity
  8
0
100
AcDbCircle
 10
0.0
 20
0.0
 30
0.0
 40
1.5
  0
ENDBLK
  5
443
330
43F
100
AcDbEntity
  8
0
100
AcDbBlockEnd
  0
BLOCK
  5
448
330
445
100
AcDbEntity
  8
0
100
AcDbBlockBegin
  2
CVTEL
 70
     0
 10
0.0
 20
0.0
 30
0.0
  3
CVTEL
  1

  0
CIRCLE
  5
446
330
445
100
AcDbEntity
  8
0
100
AcDbCircle
 10
0.0
 20
0.0
 30
0.0
 40
1.5
  0
TEXT
  5
447
330
445
100
AcDbEntity
  8
0
100
AcDbText
 10
-1.017857142857142
 20
-1.125
 30
0.0
 40
2.25
  1
T
  7
ROMANC
 72
     1
 11
0.0
 21
0.0
 31
0.0
100
AcDbText
 73
     2
  0
ENDBLK
  5
449
330
445
100
AcDbEntity
  8
0
100
AcDbBlockEnd
  0
BLOCK
  5
457
330
44C
100
AcDbEntity
  8
0
100
AcDbBlockBegin
  2
PTSTALP
 70
     0
 10
0.0
 20
0.0
 30
0.0
  3
PTSTALP
  1

  0
LINE
  5
44D
330
44C
100
AcDbEntity
  8
0
100
AcDbLine
 10
2.5
 20
1.25
 30
0.0
 11
-2.5
 21
1.25
 31
0.0
  0
LINE
  5
44E
330
44C
100
AcDbEntity
  8
0
100
AcDbLine
 10
-2.5
 20
1.25
 30
0.0
 11
-2.499999999998181
 21
-1.25
 31
0.0
  0
LINE
  5
44F
330
44C
100
AcDbEntity
  8
0
100
AcDbLine
 10
2.5
 20
1.25
 30
0.0
 11
2.5
 21
-1.25
 31
0.0
  0
LINE
  5
450
330
44C
100
AcDbEntity
  8
0
100
AcDbLine
 10
2.5
 20
-1.25
 30
0.0
 11
-2.499999999998181
 21
-1.25
 31
0.0
  0
LINE
  5
451
330
44C
100
AcDbEntity
  8
0
100
AcDbLine
 10
1.5
 20
-0.75
 30
0.0
 11
-1.499999999996361
 21
-0.75
 31
0.0
  0
LINE
  5
452
330
44C
100
AcDbEntity
  8
0
100
AcDbLine
 10
1.500000000001818
 20
0.75
 30
0.0
 11
-1.49999999999818
 21
0.75
 31
0.0
  0
LINE
  5
453
330
44C
100
AcDbEntity
  8
0
100
AcDbLine
 10
1.5
 20
-0.75
 30
0.0
 11
-1.5
 21
0.75
 31
0.0
  0
LWPOLYLINE
  5
454
330
44C
100
AcDbEntity
  8
0
100
AcDbPolyline
 90
        2
 70
     0
 10
1.5
 20
0.75
 40
0.5
 41
0.0
 10
1.970093473590168
 20
0.749999999998181
 40
0.0
 41
0.0
  0
CIRCLE
  5
455
330
44C
100
AcDbEntity
  8
0
100
AcDbCircle
 10
2.850000000000362
 20
0.0
 30
0.0
 40
0.35
  0
CIRCLE
  5
456
330
44C
100
AcDbEntity
  8
0
100
AcDbCircle
 10
-2.849999999996725
 20
0.0
 30
0.0
 40
0.35
  0
ENDBLK
  5
458
330
44C
100
AcDbEntity
  8
0
100
AcDbBlockEnd
  0
BLOCK
  5
465
330
45A
100
AcDbEntity
  8
0
100
AcDbBlockBegin
  2
STLEA
 70
     0
 10
0.0
 20
0.0
 30
0.0
  3
STLEA
  1

  0
LINE
  5
45B
330
45A
100
AcDbEntity
  8
0
100
AcDbLine
 10
-2.5
 20
4.0
 30
0.0
 11
2.5
 21
4.0
 31
0.0
  0
LINE
  5
45C
330
45A
100
AcDbEntity
  8
0
100
AcDbLine
 10
-2.5
 20
-4.0
 30
0.0
 11
2.5
 21
-4.0
 31
0.0
  0
LINE
  5
45D
330
45A
100
AcDbEntity
  8
0
100
AcDbLine
 10
-4.0
 20
2.5
 30
0.0
 11
-4.0
 21
-2.5
 31
0.0
  0
LINE
  5
45E
330
45A
100
AcDbEntity
  8
0
100
AcDbLine
 10
4.0
 20
2.5
 30
0.0
 11
4.0
 21
-2.5
 31
0.0
  0
LWPOLYLINE
  5
45F
330
45A
100
AcDbEntity
  8
0
100
AcDbPolyline
 90
        4
 70
     1
 43
0.0
 10
-4.0
 20
4.0
 10
-3.0
 20
4.0
 10
-3.0
 20
3.0
 10
-4.0
 20
3.0
  0
LWPOLYLINE
  5
460
330
45A
100
AcDbEntity
  8
0
100
AcDbPolyline
 90
        4
 70
     1
 43
0.0
 10
3.0
 20
4.0
 10
4.0
 20
4.0
 10
4.0
 20
3.0
 10
3.0
 20
3.0
  0
LWPOLYLINE
  5
461
330
45A
100
AcDbEntity
  8
0
100
AcDbPolyline
 90
        4
 70
     1
 43
0.0
 10
3.0
 20
-3.0
 10
4.0
 20
-3.0
 10
4.0
 20
-4.0
 10
3.0
 20
-4.0
  0
LWPOLYLINE
  5
462
330
45A
100
AcDbEntity
  8
0
100
AcDbPolyline
 90
        4
 70
     1
 43
0.0
 10
-4.0
 20
-3.0
 10
-3.0
 20
-3.0
 10
-3.0
 20
-4.0
 10
-4.0
 20
-4.0
  0
LWPOLYLINE
  5
463
330
45A
100
AcDbEntity
  8
0
100
AcDbPolyline
 90
        3
 70
     0
 10
0.0000000000000001
 20
8.0
 40
0.0
 41
0.3
 10
0.0000000000000001
 20
7.299999999999998
 40
0.0
 41
0.0
 10
0.0000000000000001
 20
4.0
 40
0.0
 41
0.0
  0
LWPOLYLINE
  5
464
330
45A
100
AcDbEntity
  8
0
100
AcDbPolyline
 90
        3
 70
     0
 10
0.0000000000000001
 20
-8.0
 40
0.0
 41
0.3
 10
0.0000000000000001
 20
-7.299999999999998
 40
0.0
 41
0.0
 10
0.0000000000000001
 20
-4.0
 40
0.0
 41
0.0
  0
ENDBLK
  5
466
330
45A
100
AcDbEntity
  8
0
100
AcDbBlockEnd
  0
BLOCK
  5
470
330
468
100
AcDbEntity
  8
0
100
AcDbBlockBegin
  2
STELLIN
 70
     0
 10
0.0
 20
0.0
 30
0.0
  3
STELLIN
  1

  0
LWPOLYLINE
  5
469
330
468
100
AcDbEntity
  8
0
100
AcDbPolyline
 90
        2
 70
     0
 10
0.0
 20
-2.544000000007144
 40
0.0
 41
0.38556
 10
0.0000000001600711
 20
-2.048279999797159
 40
0.38556
 41
0.38556
  0
LWPOLYLINE
  5
46A
330
468
100
AcDbEntity
  8
0
100
AcDbPolyline
 90
        2
 70
     0
 43
0.6
 10
0.3000000000538421
 20
0.000000000001819
 42
0.4142135623730951
 10
0.000000000007276
 20
0.3000000000483851
 42
1.0
  0
LWPOLYLINE
  5
46B
330
468
100
AcDbEntity
  8
0
100
AcDbPolyline
 90
        2
 70
     0
 43
0.6
 10
0.000000000007276
 20
0.3000000000483851
 42
0.4142135623730951
 10
-0.3000000000392902
 20
0.000000000001819
 42
1.0
  0
CIRCLE
  5
46C
330
468
100
AcDbEntity
  8
0
100
AcDbCircle
 10
0.0
 20
0.0
 30
0.0
 40
0.6
  0
LINE
  5
46D
330
468
100
AcDbEntity
  8
0
100
AcDbLine
 10
0.000000000007276
 20
-0.5999999999967259
 30
0.0
 11
0.0
 21
-2.544000000007144
 31
0.0
  0
LWPOLYLINE
  5
46E
330
468
100
AcDbEntity
  8
0
100
AcDbPolyline
 90
        2
 70
     0
 10
0.0
 20
2.544000000010782
 40
0.0
 41
0.38556
 10
0.0000000001600711
 20
2.048279999800796
 40
0.38556
 41
0.38556
  0
LINE
  5
46F
330
468
100
AcDbEntity
  8
0
100
AcDbLine
 10
0.000000000007276
 20
0.6000000000003638
 30
0.0
 11
0.0
 21
2.544000000010782
 31
0.0
  0
ENDBLK
  5
471
330
468
100
AcDbEntity
  8
0
100
AcDbBlockEnd
  0
BLOCK
  5
477
330
473
100
AcDbEntity
  8
0
100
AcDbBlockBegin
  2
STILBET
 70
     0
 10
0.0
 20
0.0
 30
0.0
  3
STILBET
  1

  0
LWPOLYLINE
  5
474
330
473
100
AcDbEntity
  8
0
100
AcDbPolyline
 90
        2
 70
     0
 43
0.8499999999999998
 10
0.0
 20
0.4250000000659686
 42
1.0
 10
0.0
 20
-0.4250000000659684
 42
1.0
  0
CIRCLE
  5
475
330
473
100
AcDbEntity
  8
0
100
AcDbCircle
 10
0.0
 20
0.0
 30
0.0
 40
0.8499999999999998
  0
LWPOLYLINE
  5
476
330
473
100
AcDbEntity
  8
0
100
AcDbPolyline
 90
        5
 70
     0
 10
-0.6010386859998106
 20
0.601038686329654
 40
0.0
 41
0.0
 10
0.8485302152676899
 20
2.050607587597153
 40
0.0
 41
0.0
 10
1.449568901432421
 20
1.449568901432421
 40
0.0
 41
0.0
 10
3.075914498161481
 20
3.075914498161481
 40
0.3
 41
0.0
 10
3.570889244992064
 20
3.570889244992064
 40
0.0
 41
0.0
  0
ENDBLK
  5
478
330
473
100
AcDbEntity
  8
0
100
AcDbBlockEnd
  0
BLOCK
  5
47D
330
47A
100
AcDbEntity
  8
0
100
AcDbBlockBegin
  2
STILLMN
 70
     0
 10
0.0
 20
0.0
 30
0.0
  3
STILLMN
  1

  0
CIRCLE
  5
47B
330
47A
100
AcDbEntity
  8
0
100
AcDbCircle
 10
0.0
 20
0.0
 30
0.0
 40
0.8499999999999998
  0
LWPOLYLINE
  5
47C
330
47A
100
AcDbEntity
  8
0
100
AcDbPolyline
 90
        5
 70
     0
 10
-0.6010386859998106
 20
0.601038686329654
 40
0.0
 41
0.0
 10
0.8485302152676899
 20
2.050607587597153
 40
0.0
 41
0.0
 10
1.449568901432421
 20
1.449568901432421
 40
0.0
 41
0.0
 10
3.075914498161481
 20
3.075914498161481
 40
0.3
 41
0.0
 10
3.570889244992064
 20
3.570889244992064
 40
0.0
 41
0.0
  0
ENDBLK
  5
47E
330
47A
100
AcDbEntity
  8
0
100
AcDbBlockEnd
  0
BLOCK
  5
483
330
480
100
AcDbEntity
  8
0
100
AcDbBlockBegin
  2
STTEL
 70
     0
 10
0.0
 20
0.0
 30
0.0
  3
STTEL
  1

  0
LINE
  5
481
330
480
100
AcDbEntity
  8
0
100
AcDbLine
 10
-1.062582410057075
 20
0.8499999999667123
 30
0.0
 11
1.0625
 21
0.8499999999667123
 31
0.0
  0
CIRCLE
  5
482
330
480
100
AcDbEntity
  8
0
100
AcDbCircle
 10
0.0
 20
0.0
 30
0.0
 40
0.85
  0
ENDBLK
  5
484
330
480
100
AcDbEntity
  8
0
100
AcDbBlockEnd
  0
BLOCK
  5
489
330
486
100
AcDbEntity
  8
0
100
AcDbBlockBegin
  2
STELCF
 70
     0
 10
0.0
 20
0.0
 30
0.0
  3
STELCF
  1

  0
LINE
  5
487
330
486
100
AcDbEntity
  8
0
100
AcDbLine
 10
0.0
 20
0.0
 30
0.0
 11
0.0
 21
1.5
 31
0.0
  0
LWPOLYLINE
  5
488
330
486
100
AcDbEntity
  8
0
100
AcDbPolyline
 90
        2
 70
     1
 43
0.375
 10
-0.1875
 20
0.0
 42
1.0
 10
0.1875
 20
0.0
 42
1.0
  0
ENDBLK
  5
48A
330
486
100
AcDbEntity
  8
0
100
AcDbBlockEnd
  0
BLOCK
  5
491
330
48C
100
AcDbEntity
  8
0
100
AcDbBlockBegin
  2
LAMPADAR
 70
     0
 10
0.0
 20
0.0
 30
0.0
  3
LAMPADAR
  1

  0
LINE
  5
48D
330
48C
100
AcDbEntity
  8
0
100
AcDbLine
 10
-0.4596194077712561
 20
-0.4596194077712558
 30
0.0
 11
0.4596194077712564
 21
0.4596194077712558
 31
0.0
  0
LINE
  5
48E
330
48C
100
AcDbEntity
  8
0
100
AcDbLine
 10
-0.4596194077712558
 20
0.4596194077712561
 30
0.0
 11
0.4596194077712558
 21
-0.4596194077712561
 31
0.0
  0
CIRCLE
  5
48F
330
48C
100
AcDbEntity
  8
0
100
AcDbCircle
 10
0.0
 20
0.0000000000000001
 30
0.0
 40
0.65
  0
LWPOLYLINE
  5
490
330
48C
100
AcDbEntity
  8
0
100
AcDbPolyline
 90
        5
 70
     0
 10
-0.4596194077712558
 20
0.4596194077712561
 40
0.0
 41
0.0
 10
0.7071067811865476
 20
1.626345596729059
 40
0.0
 41
0.0
 10
1.166726188957804
 20
1.166726188957802
 40
0.0
 41
0.0
 10
2.793071785579943
 20
2.79307178579378
 40
0.3
 41
0.0
 10
3.288046532517446
 20
3.288046532517445
 40
0.0
 41
0.0
  0
ENDBLK
  5
492
330
48C
100
AcDbEntity
  8
0
100
AcDbBlockEnd
  0
BLOCK
  5
499
330
494
100
AcDbEntity
  8
0
100
AcDbBlockBegin
  2
PROIECTOR
 70
     0
 10
0.0
 20
0.0
 30
0.0
  3
PROIECTOR
  1

  0
CIRCLE
  5
495
330
494
100
AcDbEntity
  8
0
100
AcDbCircle
 10
0.0
 20
0.0
 30
0.0
 40
0.75
  0
LINE
  5
496
330
494
100
AcDbEntity
  8
0
100
AcDbLine
 10
0.0
 20
5.75
 30
0.0
 11
0.0
 21
0.75
 31
0.0
  0
LINE
  5
497
330
494
100
AcDbEntity
  8
0
100
AcDbLine
 10
1.0
 20
4.75
 30
0.0
 11
0.0
 21
4.75
 31
0.0
  0
LWPOLYLINE
  5
498
330
494
100
AcDbEntity
  8
0
100
AcDbPolyline
 90
        2
 70
     1
 43
0.0
 10
2.0
 20
5.75
 42
0.9999999999999998
 10
1.999999999999999
 20
3.75
  0
ENDBLK
  5
49A
330
494
100
AcDbEntity
  8
0
100
AcDbBlockEnd
  0
BLOCK
  5
4A0
330
49C
100
AcDbEntity
  8
0
100
AcDbBlockBegin
  2
STATIE
 70
     0
 10
0.0
 20
0.0
 30
0.0
  3
STATIE
  1

  0
CIRCLE
  5
49D
330
49C
100
AcDbEntity
  8
0
100
AcDbCircle
 10
0.0
 20
0.0
 30
0.0
 40
1.0
  0
LWPOLYLINE
  5
49E
330
49C
100
AcDbEntity
  8
0
100
AcDbPolyline
 90
        2
 70
     1
 43
0.1
 10
-0.05
 20
0.0
 42
1.0
 10
0.05
 20
0.0
 42
1.0
  0
LINE
  5
49F
330
49C
100
AcDbEntity
  8
0
100
AcDbLine
 10
0.0
 20
1.0
 30
0.0
 11
0.0
 21
1.510078303406899
 31
0.0
  0
ENDBLK
  5
4A1
330
49C
100
AcDbEntity
  8
0
100
AcDbBlockEnd
  0
BLOCK
  5
4CD
330
4C8
100
AcDbEntity
  8
0
100
AcDbBlockBegin
  2
CJx
 70
     0
 10
0.0
 20
0.0
 30
0.0
  3
CJx
  1

  0
LINE
  5
4C9
330
4C8
100
AcDbEntity
  8
0
100
AcDbLine
 10
0.0
 20
-3.0
 30
0.0
 11
0.0
 21
-0.4
 31
0.0
  0
LINE
  5
4CA
330
4C8
100
AcDbEntity
  8
0
100
AcDbLine
 10
0.4000000000000001
 20
0.0
 30
0.0
 11
3.0
 21
0.0
 31
0.0
  0
LINE
  5
4CB
330
4C8
100
AcDbEntity
  8
0
100
AcDbLine
 10
0.0
 20
0.4000000000000001
 30
0.0
 11
0.0
 21
3.0
 31
0.0
  0
LINE
  5
4CC
330
4C8
100
AcDbEntity
  8
0
100
AcDbLine
 10
-3.0
 20
0.0
 30
0.0
 11
-0.4
 21
0.0
 31
0.0
  0
ENDBLK
  5
4CE
330
4C8
100
AcDbEntity
  8
0
100
AcDbBlockEnd
  0
BLOCK
  5
536
330
535
100
AcDbEntity
  8
0
100
AcDbBlockBegin
  2
*U35
 70
     1
 10
0.0
 20
0.0
 30
0.0
  3
*U35
  1
*U
  0
LINE
  5
537
330
535
100
AcDbEntity
  8
CAROIAJ
100
AcDbLine
 10
474548.0297353554
 20
620800.0
 30
0.0
 11
474568.0297353554
 21
620800.0
 31
0.0
  0
LINE
  5
538
330
535
100
AcDbEntity
  8
CAROIAJ
100
AcDbLine
 10
475654.6884749512
 20
620800.0
 30
0.0
 11
475674.688474951
 21
620800.0
 31
0.0
  0
TEXT
  5
539
330
535
100
AcDbEntity
  8
CAROIAJ
100
AcDbText
 10
474549.2716401173
 20
620801.0
 30
0.0
 40
1.6
  1
620800
 41
1.9
  7
ROMAND
 72
     1
 11
474558.0297353554
 21
620801.0
 31
0.0
100
AcDbText
  0
TEXT
  5
53A
330
535
100
AcDbEntity
  8
CAROIAJ
100
AcDbText
 10
475655.9303797131
 20
620801.0
 30
0.0
 40
1.6
  1
620800
 41
1.9
  7
ROMAND
 72
     1
 11
475664.6884749512
 21
620801.0
 31
0.0
100
AcDbText
  0
LINE
  5
53B
330
535
100
AcDbEntity
  8
CAROIAJ
100
AcDbLine
 10
474548.0297353554
 20
621000.0
 30
0.0
 11
474568.0297353554
 21
621000.0
 31
0.0
  0
LINE
  5
53C
330
535
100
AcDbEntity
  8
CAROIAJ
100
AcDbLine
 10
475654.6884749512
 20
621000.0
 30
0.0
 11
475674.688474951
 21
621000.0
 31
0.0
  0
TEXT
  5
53D
330
535
100
AcDbEntity
  8
CAROIAJ
100
AcDbText
 10
474549.2716401173
 20
621001.0
 30
0.0
 40
1.6
  1
621000
 41
1.9
  7
ROMAND
 72
     1
 11
474558.0297353554
 21
621001.0
 31
0.0
100
AcDbText
  0
TEXT
  5
53E
330
535
100
AcDbEntity
  8
CAROIAJ
100
AcDbText
 10
475655.9303797131
 20
621001.0
 30
0.0
 40
1.6
  1
621000
 41
1.9
  7
ROMAND
 72
     1
 11
475664.6884749512
 21
621001.0
 31
0.0
100
AcDbText
  0
LINE
  5
53F
330
535
100
AcDbEntity
  8
CAROIAJ
100
AcDbLine
 10
474548.0297353554
 20
621200.0
 30
0.0
 11
474568.0297353554
 21
621200.0
 31
0.0
  0
LINE
  5
540
330
535
100
AcDbEntity
  8
CAROIAJ
100
AcDbLine
 10
475654.6884749512
 20
621200.0
 30
0.0
 11
475674.688474951
 21
621200.0
 31
0.0
  0
TEXT
  5
541
330
535
100
AcDbEntity
  8
CAROIAJ
100
AcDbText
 10
474549.2716401173
 20
621201.0
 30
0.0
 40
1.6
  1
621200
 41
1.9
  7
ROMAND
 72
     1
 11
474558.0297353554
 21
621201.0
 31
0.0
100
AcDbText
  0
TEXT
  5
542
330
535
100
AcDbEntity
  8
CAROIAJ
100
AcDbText
 10
475655.9303797131
 20
621201.0
 30
0.0
 40
1.6
  1
621200
 41
1.9
  7
ROMAND
 72
     1
 11
475664.6884749512
 21
621201.0
 31
0.0
100
AcDbText
  0
LINE
  5
543
330
535
100
AcDbEntity
  8
CAROIAJ
100
AcDbLine
 10
474548.0297353554
 20
621400.0
 30
0.0
 11
474568.0297353554
 21
621400.0
 31
0.0
  0
LINE
  5
544
330
535
100
AcDbEntity
  8
CAROIAJ
100
AcDbLine
 10
475654.6884749512
 20
621400.0
 30
0.0
 11
475674.688474951
 21
621400.0
 31
0.0
  0
TEXT
  5
545
330
535
100
AcDbEntity
  8
CAROIAJ
100
AcDbText
 10
474549.2716401173
 20
621401.0
 30
0.0
 40
1.6
  1
621400
 41
1.9
  7
ROMAND
 72
     1
 11
474558.0297353554
 21
621401.0
 31
0.0
100
AcDbText
  0
TEXT
  5
546
330
535
100
AcDbEntity
  8
CAROIAJ
100
AcDbText
 10
475655.9303797131
 20
621401.0
 30
0.0
 40
1.6
  1
621400
 41
1.9
  7
ROMAND
 72
     1
 11
475664.6884749512
 21
621401.0
 31
0.0
100
AcDbText
  0
LINE
  5
547
330
535
100
AcDbEntity
  8
CAROIAJ
100
AcDbLine
 10
474548.0297353554
 20
621600.0
 30
0.0
 11
474568.0297353554
 21
621600.0
 31
0.0
  0
LINE
  5
548
330
535
100
AcDbEntity
  8
CAROIAJ
100
AcDbLine
 10
475654.6884749512
 20
621600.0
 30
0.0
 11
475674.688474951
 21
621600.0
 31
0.0
  0
TEXT
  5
549
330
535
100
AcDbEntity
  8
CAROIAJ
100
AcDbText
 10
474549.2716401173
 20
621601.0
 30
0.0
 40
1.6
  1
621600
 41
1.9
  7
ROMAND
 72
     1
 11
474558.0297353554
 21
621601.0
 31
0.0
100
AcDbText
  0
TEXT
  5
54A
330
535
100
AcDbEntity
  8
CAROIAJ
100
AcDbText
 10
475655.9303797131
 20
621601.0
 30
0.0
 40
1.6
  1
621600
 41
1.9
  7
ROMAND
 72
     1
 11
475664.6884749512
 21
621601.0
 31
0.0
100
AcDbText
  0
LINE
  5
54B
330
535
100
AcDbEntity
  8
CAROIAJ
100
AcDbLine
 10
474548.0297353554
 20
621800.0
 30
0.0
 11
474568.0297353554
 21
621800.0
 31
0.0
  0
LINE
  5
54C
330
535
100
AcDbEntity
  8
CAROIAJ
100
AcDbLine
 10
475654.6884749512
 20
621800.0
 30
0.0
 11
475674.688474951
 21
621800.0
 31
0.0
  0
TEXT
  5
54D
330
535
100
AcDbEntity
  8
CAROIAJ
100
AcDbText
 10
474549.2716401173
 20
621801.0
 30
0.0
 40
1.6
  1
621800
 41
1.9
  7
ROMAND
 72
     1
 11
474558.0297353554
 21
621801.0
 31
0.0
100
AcDbText
  0
TEXT
  5
54E
330
535
100
AcDbEntity
  8
CAROIAJ
100
AcDbText
 10
475655.9303797131
 20
621801.0
 30
0.0
 40
1.6
  1
621800
 41
1.9
  7
ROMAND
 72
     1
 11
475664.6884749512
 21
621801.0
 31
0.0
100
AcDbText
  0
LINE
  5
54F
330
535
100
AcDbEntity
  8
CAROIAJ
100
AcDbLine
 10
474967.3017283215
 20
622000.0
 30
0.0
 11
474987.3017283214
 21
622000.0
 31
0.0
  0
LINE
  5
550
330
535
100
AcDbEntity
  8
CAROIAJ
100
AcDbLine
 10
475654.6884749512
 20
622000.0
 30
0.0
 11
475674.688474951
 21
622000.0
 31
0.0
  0
TEXT
  5
551
330
535
100
AcDbEntity
  8
CAROIAJ
100
AcDbText
 10
474968.5436330834
 20
622001.0
 30
0.0
 40
1.6
  1
622000
 41
1.9
  7
ROMAND
 72
     1
 11
474977.3017283215
 21
622001.0
 31
0.0
100
AcDbText
  0
TEXT
  5
552
330
535
100
AcDbEntity
  8
CAROIAJ
100
AcDbText
 10
475655.9303797131
 20
622001.0
 30
0.0
 40
1.6
  1
622000
 41
1.9
  7
ROMAND
 72
     1
 11
475664.6884749512
 21
622001.0
 31
0.0
100
AcDbText
  0
LINE
  5
553
330
535
100
AcDbEntity
  8
CAROIAJ
100
AcDbLine
 10
474967.3017283215
 20
622200.0
 30
0.0
 11
474987.3017283214
 21
622200.0
 31
0.0
  0
LINE
  5
554
330
535
100
AcDbEntity
  8
CAROIAJ
100
AcDbLine
 10
475654.6884749512
 20
622200.0
 30
0.0
 11
475674.688474951
 21
622200.0
 31
0.0
  0
TEXT
  5
555
330
535
100
AcDbEntity
  8
CAROIAJ
100
AcDbText
 10
474968.5436330834
 20
622201.0
 30
0.0
 40
1.6
  1
622200
 41
1.9
  7
ROMAND
 72
     1
 11
474977.3017283215
 21
622201.0
 31
0.0
100
AcDbText
  0
TEXT
  5
556
330
535
100
AcDbEntity
  8
CAROIAJ
100
AcDbText
 10
475655.9303797131
 20
622201.0
 30
0.0
 40
1.6
  1
622200
 41
1.9
  7
ROMAND
 72
     1
 11
475664.6884749512
 21
622201.0
 31
0.0
100
AcDbText
  0
LINE
  5
557
330
535
100
AcDbEntity
  8
CAROIAJ
100
AcDbLine
 10
474599.9999999999
 20
620648.2203954799
 30
0.0
 11
474599.9999999999
 21
620668.2203954799
 31
0.0
  0
LINE
  5
558
330
535
100
AcDbEntity
  8
CAROIAJ
100
AcDbLine
 10
474600.0
 20
621928.1082939581
 30
0.0
 11
474600.0
 21
621948.1082939581
 31
0.0
  0
TEXT
  5
559
330
535
100
AcDbEntity
  8
CAROIAJ
100
AcDbText
 10
474598.9999999999
 20
620649.5346811943
 30
0.0
 40
1.6
  1
474600
 50
89.99999999999744
 41
1.9
  7
ROMAND
 72
     1
 11
474598.9999999999
 21
620658.2203954799
 31
0.0
100
AcDbText
  0
TEXT
  5
55A
330
535
100
AcDbEntity
  8
CAROIAJ
100
AcDbText
 10
474599.0
 20
621929.4225796724
 30
0.0
 40
1.6
  1
474600
 50
89.99999999999744
 41
1.9
  7
ROMAND
 72
     1
 11
474599.0
 21
621938.1082939581
 31
0.0
100
AcDbText
  0
LINE
  5
55B
330
535
100
AcDbEntity
  8
CAROIAJ
100
AcDbLine
 10
474800.0
 20
620648.2203954799
 30
0.0
 11
474800.0
 21
620668.2203954799
 31
0.0
  0
LINE
  5
55C
330
535
100
AcDbEntity
  8
CAROIAJ
100
AcDbLine
 10
474800.0
 20
621928.1082939581
 30
0.0
 11
474800.0
 21
621948.1082939581
 31
0.0
  0
TEXT
  5
55D
330
535
100
AcDbEntity
  8
CAROIAJ
100
AcDbText
 10
474798.9999999999
 20
620649.5346811943
 30
0.0
 40
1.6
  1
474800
 50
89.99999999999744
 41
1.9
  7
ROMAND
 72
     1
 11
474798.9999999999
 21
620658.2203954799
 31
0.0
100
AcDbText
  0
TEXT
  5
55E
330
535
100
AcDbEntity
  8
CAROIAJ
100
AcDbText
 10
474799.0
 20
621929.4225796724
 30
0.0
 40
1.6
  1
474800
 50
89.99999999999744
 41
1.9
  7
ROMAND
 72
     1
 11
474799.0
 21
621938.1082939581
 31
0.0
100
AcDbText
  0
LINE
  5
55F
330
535
100
AcDbEntity
  8
CAROIAJ
100
AcDbLine
 10
475000.0
 20
620648.2203954799
 30
0.0
 11
475000.0
 21
620668.2203954799
 31
0.0
  0
LINE
  5
560
330
535
100
AcDbEntity
  8
CAROIAJ
100
AcDbLine
 10
475000.0
 20
622268.2679579057
 30
0.0
 11
475000.0
 21
622288.2679579057
 31
0.0
  0
TEXT
  5
561
330
535
100
AcDbEntity
  8
CAROIAJ
100
AcDbText
 10
474999.0000000001
 20
620649.5346811943
 30
0.0
 40
1.6
  1
475000
 50
90.00000000000204
 41
1.9
  7
ROMAND
 72
     1
 11
474999.0000000001
 21
620658.2203954799
 31
0.0
100
AcDbText
  0
TEXT
  5
562
330
535
100
AcDbEntity
  8
CAROIAJ
100
AcDbText
 10
474999.0
 20
622269.5822436197
 30
0.0
 40
1.6
  1
475000
 50
90.00000000000204
 41
1.9
  7
ROMAND
 72
     1
 11
474999.0
 21
622278.2679579054
 31
0.0
100
AcDbText
  0
LINE
  5
563
330
535
100
AcDbEntity
  8
CAROIAJ
100
AcDbLine
 10
475200.0000000001
 20
620648.2203954799
 30
0.0
 11
475200.0000000001
 21
620668.2203954799
 31
0.0
  0
LINE
  5
564
330
535
100
AcDbEntity
  8
CAROIAJ
100
AcDbLine
 10
475200.0
 20
622268.2679579057
 30
0.0
 11
475200.0
 21
622288.2679579057
 31
0.0
  0
TEXT
  5
565
330
535
100
AcDbEntity
  8
CAROIAJ
100
AcDbText
 10
475199.0000000001
 20
620649.5346811943
 30
0.0
 40
1.6
  1
475200
 50
90.00000000000204
 41
1.9
  7
ROMAND
 72
     1
 11
475199.0000000001
 21
620658.2203954799
 31
0.0
100
AcDbText
  0
TEXT
  5
566
330
535
100
AcDbEntity
  8
CAROIAJ
100
AcDbText
 10
475199.0
 20
622269.5822436197
 30
0.0
 40
1.6
  1
475200
 50
90.00000000000204
 41
1.9
  7
ROMAND
 72
     1
 11
475199.0
 21
622278.2679579054
 31
0.0
100
AcDbText
  0
LINE
  5
567
330
535
100
AcDbEntity
  8
CAROIAJ
100
AcDbLine
 10
475400.0
 20
620648.2203954799
 30
0.0
 11
475400.0
 21
620668.2203954799
 31
0.0
  0
LINE
  5
568
330
535
100
AcDbEntity
  8
CAROIAJ
100
AcDbLine
 10
475400.0
 20
622268.2679579057
 30
0.0
 11
475400.0
 21
622288.2679579057
 31
0.0
  0
TEXT
  5
569
330
535
100
AcDbEntity
  8
CAROIAJ
100
AcDbText
 10
475399.0
 20
620649.5346811943
 30
0.0
 40
1.6
  1
475400
 50
90.0
 41
1.9
  7
ROMAND
 72
     1
 11
475399.0
 21
620658.2203954799
 31
0.0
100
AcDbText
  0
TEXT
  5
56A
330
535
100
AcDbEntity
  8
CAROIAJ
100
AcDbText
 10
475399.0
 20
622269.5822436197
 30
0.0
 40
1.6
  1
475400
 50
90.0
 41
1.9
  7
ROMAND
 72
     1
 11
475399.0
 21
622278.2679579054
 31
0.0
100
AcDbText
  0
LINE
  5
56B
330
535
100
AcDbEntity
  8
CAROIAJ
100
AcDbLine
 10
475600.0
 20
620648.2203954799
 30
0.0
 11
475600.0
 21
620668.2203954799
 31
0.0
  0
LINE
  5
56C
330
535
100
AcDbEntity
  8
CAROIAJ
100
AcDbLine
 10
475600.0000000001
 20
622268.2679579057
 30
0.0
 11
475600.0000000001
 21
622288.2679579057
 31
0.0
  0
TEXT
  5
56D
330
535
100
AcDbEntity
  8
CAROIAJ
100
AcDbText
 10
475599.0
 20
620649.5346811943
 30
0.0
 40
1.6
  1
475600
 50
89.99999999999799
 41
1.9
  7
ROMAND
 72
     1
 11
475599.0
 21
620658.2203954799
 31
0.0
100
AcDbText
  0
TEXT
  5
56E
330
535
100
AcDbEntity
  8
CAROIAJ
100
AcDbText
 10
475599.0
 20
622269.5822436197
 30
0.0
 40
1.6
  1
475600
 50
89.99999999999799
 41
1.9
  7
ROMAND
 72
     1
 11
475599.0
 21
622278.2679579054
 31
0.0
100
AcDbText
  0
INSERT
  5
56F
330
535
100
AcDbEntity
  8
CAROIAJ
100
AcDbBlockReference
  2
CJx
 10
474600.0
 20
620800.0
 30
0.0
 41
2.0
 42
2.0
 43
2.0
  0
INSERT
  5
570
330
535
100
AcDbEntity
  8
CAROIAJ
100
AcDbBlockReference
  2
CJx
 10
474800.0
 20
620800.0
 30
0.0
 41
2.0
 42
2.0
 43
2.0
  0
INSERT
  5
571
330
535
100
AcDbEntity
  8
CAROIAJ
100
AcDbBlockReference
  2
CJx
 10
475000.0
 20
620800.0
 30
0.0
 41
2.0
 42
2.0
 43
2.0
  0
INSERT
  5
572
330
535
100
AcDbEntity
  8
CAROIAJ
100
AcDbBlockReference
  2
CJx
 10
475200.0
 20
620800.0
 30
0.0
 41
2.0
 42
2.0
 43
2.0
  0
INSERT
  5
573
330
535
100
AcDbEntity
  8
CAROIAJ
100
AcDbBlockReference
  2
CJx
 10
475400.0
 20
620800.0
 30
0.0
 41
2.0
 42
2.0
 43
2.0
  0
INSERT
  5
574
330
535
100
AcDbEntity
  8
CAROIAJ
100
AcDbBlockReference
  2
CJx
 10
475600.0
 20
620800.0
 30
0.0
 41
2.0
 42
2.0
 43
2.0
  0
INSERT
  5
575
330
535
100
AcDbEntity
  8
CAROIAJ
100
AcDbBlockReference
  2
CJx
 10
474600.0
 20
621000.0
 30
0.0
 41
2.0
 42
2.0
 43
2.0
  0
INSERT
  5
576
330
535
100
AcDbEntity
  8
CAROIAJ
100
AcDbBlockReference
  2
CJx
 10
474800.0
 20
621000.0
 30
0.0
 41
2.0
 42
2.0
 43
2.0
  0
INSERT
  5
577
330
535
100
AcDbEntity
  8
CAROIAJ
100
AcDbBlockReference
  2
CJx
 10
475000.0
 20
621000.0
 30
0.0
 41
2.0
 42
2.0
 43
2.0
  0
INSERT
  5
578
330
535
100
AcDbEntity
  8
CAROIAJ
100
AcDbBlockReference
  2
CJx
 10
475200.0
 20
621000.0
 30
0.0
 41
2.0
 42
2.0
 43
2.0
  0
INSERT
  5
579
330
535
100
AcDbEntity
  8
CAROIAJ
100
AcDbBlockReference
  2
CJx
 10
475400.0
 20
621000.0
 30
0.0
 41
2.0
 42
2.0
 43
2.0
  0
INSERT
  5
57A
330
535
100
AcDbEntity
  8
CAROIAJ
100
AcDbBlockReference
  2
CJx
 10
475600.0
 20
621000.0
 30
0.0
 41
2.0
 42
2.0
 43
2.0
  0
INSERT
  5
57B
330
535
100
AcDbEntity
  8
CAROIAJ
100
AcDbBlockReference
  2
CJx
 10
474600.0
 20
621200.0
 30
0.0
 41
2.0
 42
2.0
 43
2.0
  0
INSERT
  5
57C
330
535
100
AcDbEntity
  8
CAROIAJ
100
AcDbBlockReference
  2
CJx
 10
474800.0
 20
621200.0
 30
0.0
 41
2.0
 42
2.0
 43
2.0
  0
INSERT
  5
57D
330
535
100
AcDbEntity
  8
CAROIAJ
100
AcDbBlockReference
  2
CJx
 10
475000.0
 20
621200.0
 30
0.0
 41
2.0
 42
2.0
 43
2.0
  0
INSERT
  5
57E
330
535
100
AcDbEntity
  8
CAROIAJ
100
AcDbBlockReference
  2
CJx
 10
475200.0
 20
621200.0
 30
0.0
 41
2.0
 42
2.0
 43
2.0
  0
INSERT
  5
57F
330
535
100
AcDbEntity
  8
CAROIAJ
100
AcDbBlockReference
  2
CJx
 10
475400.0
 20
621200.0
 30
0.0
 41
2.0
 42
2.0
 43
2.0
  0
INSERT
  5
580
330
535
100
AcDbEntity
  8
CAROIAJ
100
AcDbBlockReference
  2
CJx
 10
475600.0
 20
621200.0
 30
0.0
 41
2.0
 42
2.0
 43
2.0
  0
INSERT
  5
581
330
535
100
AcDbEntity
  8
CAROIAJ
100
AcDbBlockReference
  2
CJx
 10
474600.0
 20
621400.0
 30
0.0
 41
2.0
 42
2.0
 43
2.0
  0
INSERT
  5
582
330
535
100
AcDbEntity
  8
CAROIAJ
100
AcDbBlockReference
  2
CJx
 10
474800.0
 20
621400.0
 30
0.0
 41
2.0
 42
2.0
 43
2.0
  0
INSERT
  5
583
330
535
100
AcDbEntity
  8
CAROIAJ
100
AcDbBlockReference
  2
CJx
 10
475000.0
 20
621400.0
 30
0.0
 41
2.0
 42
2.0
 43
2.0
  0
INSERT
  5
584
330
535
100
AcDbEntity
  8
CAROIAJ
100
AcDbBlockReference
  2
CJx
 10
475200.0
 20
621400.0
 30
0.0
 41
2.0
 42
2.0
 43
2.0
  0
INSERT
  5
585
330
535
100
AcDbEntity
  8
CAROIAJ
100
AcDbBlockReference
  2
CJx
 10
475400.0
 20
621400.0
 30
0.0
 41
2.0
 42
2.0
 43
2.0
  0
INSERT
  5
586
330
535
100
AcDbEntity
  8
CAROIAJ
100
AcDbBlockReference
  2
CJx
 10
475600.0
 20
621400.0
 30
0.0
 41
2.0
 42
2.0
 43
2.0
  0
INSERT
  5
587
330
535
100
AcDbEntity
  8
CAROIAJ
100
AcDbBlockReference
  2
CJx
 10
474600.0
 20
621600.0
 30
0.0
 41
2.0
 42
2.0
 43
2.0
  0
INSERT
  5
588
330
535
100
AcDbEntity
  8
CAROIAJ
100
AcDbBlockReference
  2
CJx
 10
474800.0
 20
621600.0
 30
0.0
 41
2.0
 42
2.0
 43
2.0
  0
INSERT
  5
589
330
535
100
AcDbEntity
  8
CAROIAJ
100
AcDbBlockReference
  2
CJx
 10
475000.0
 20
621600.0
 30
0.0
 41
2.0
 42
2.0
 43
2.0
  0
INSERT
  5
58A
330
535
100
AcDbEntity
  8
CAROIAJ
100
AcDbBlockReference
  2
CJx
 10
475200.0
 20
621600.0
 30
0.0
 41
2.0
 42
2.0
 43
2.0
  0
INSERT
  5
58B
330
535
100
AcDbEntity
  8
CAROIAJ
100
AcDbBlockReference
  2
CJx
 10
475400.0
 20
621600.0
 30
0.0
 41
2.0
 42
2.0
 43
2.0
  0
INSERT
  5
58C
330
535
100
AcDbEntity
  8
CAROIAJ
100
AcDbBlockReference
  2
CJx
 10
475600.0
 20
621600.0
 30
0.0
 41
2.0
 42
2.0
 43
2.0
  0
INSERT
  5
58D
330
535
100
AcDbEntity
  8
CAROIAJ
100
AcDbBlockReference
  2
CJx
 10
474600.0
 20
621800.0
 30
0.0
 41
2.0
 42
2.0
 43
2.0
  0
INSERT
  5
58E
330
535
100
AcDbEntity
  8
CAROIAJ
100
AcDbBlockReference
  2
CJx
 10
474800.0
 20
621800.0
 30
0.0
 41
2.0
 42
2.0
 43
2.0
  0
INSERT
  5
58F
330
535
100
AcDbEntity
  8
CAROIAJ
100
AcDbBlockReference
  2
CJx
 10
475000.0
 20
621800.0
 30
0.0
 41
2.0
 42
2.0
 43
2.0
  0
INSERT
  5
590
330
535
100
AcDbEntity
  8
CAROIAJ
100
AcDbBlockReference
  2
CJx
 10
475200.0
 20
621800.0
 30
0.0
 41
2.0
 42
2.0
 43
2.0
  0
INSERT
  5
591
330
535
100
AcDbEntity
  8
CAROIAJ
100
AcDbBlockReference
  2
CJx
 10
475400.0
 20
621800.0
 30
0.0
 41
2.0
 42
2.0
 43
2.0
  0
INSERT
  5
592
330
535
100
AcDbEntity
  8
CAROIAJ
100
AcDbBlockReference
  2
CJx
 10
475600.0
 20
621800.0
 30
0.0
 41
2.0
 42
2.0
 43
2.0
  0
INSERT
  5
593
330
535
100
AcDbEntity
  8
CAROIAJ
100
AcDbBlockReference
  2
CJx
 10
475000.0
 20
622000.0
 30
0.0
 41
2.0
 42
2.0
 43
2.0
  0
INSERT
  5
594
330
535
100
AcDbEntity
  8
CAROIAJ
100
AcDbBlockReference
  2
CJx
 10
475200.0
 20
622000.0
 30
0.0
 41
2.0
 42
2.0
 43
2.0
  0
INSERT
  5
595
330
535
100
AcDbEntity
  8
CAROIAJ
100
AcDbBlockReference
  2
CJx
 10
475400.0
 20
622000.0
 30
0.0
 41
2.0
 42
2.0
 43
2.0
  0
INSERT
  5
596
330
535
100
AcDbEntity
  8
CAROIAJ
100
AcDbBlockReference
  2
CJx
 10
475600.0
 20
622000.0
 30
0.0
 41
2.0
 42
2.0
 43
2.0
  0
INSERT
  5
597
330
535
100
AcDbEntity
  8
CAROIAJ
100
AcDbBlockReference
  2
CJx
 10
475000.0
 20
622200.0
 30
0.0
 41
2.0
 42
2.0
 43
2.0
  0
INSERT
  5
598
330
535
100
AcDbEntity
  8
CAROIAJ
100
AcDbBlockReference
  2
CJx
 10
475200.0
 20
622200.0
 30
0.0
 41
2.0
 42
2.0
 43
2.0
  0
INSERT
  5
599
330
535
100
AcDbEntity
  8
CAROIAJ
100
AcDbBlockReference
  2
CJx
 10
475400.0
 20
622200.0
 30
0.0
 41
2.0
 42
2.0
 43
2.0
  0
INSERT
  5
59A
330
535
100
AcDbEntity
  8
CAROIAJ
100
AcDbBlockReference
  2
CJx
 10
475600.0
 20
622200.0
 30
0.0
 41
2.0
 42
2.0
 43
2.0
  0
ENDBLK
  5
59B
330
535
100
AcDbEntity
  8
0
100
AcDbBlockEnd
  0
ENDSEC
  0
SECTION
  2
ENTITIES
  0
LWPOLYLINE
  5
1A5
330
1F
100
AcDbEntity
  8
0
100
AcDbPolyline
 90
        5
 70
     0
 43
0.0
 10
474508.0772977811
 20
622308.2441766928
 10
475694.6646937382
 20
622308.2441766928
 10
475694.6646937382
 20
620628.2441766928
 10
474508.0772977811
 20
620628.2441766928
 10
474508.0772977811
 20
622308.2441766928
  0
LWPOLYLINE
  5
1A6
330
1F
100
AcDbEntity
  8
0
100
AcDbPolyline
 90
        6
 70
     1
 43
0.0
 10
474548.0297353554
 20
621948.1082939581
 10
474967.3017283215
 20
621948.1082939581
 10
474967.3017283215
 20
622288.2679579057
 10
475674.6884749512
 20
622288.2679579057
 10
475674.6884749512
 20
620648.2203954799
 10
474548.0297353554
 20
620648.2203954799
  0
HATCH
  5
1A7
330
1F
100
AcDbEntity
  8
0
 62
     2
100
AcDbHatch
 10
0.0
 20
0.0
 30
0.0
210
0.0
220
0.0
230
1.0
  2
SOLID
 70
     1
 71
     0
 91
        1
 92
        1
 93
        1
 72
     2
 10
474666.6246644482
 20
620775.2129058387
 40
8.576404497505366
 50
0.0
 51
360.0
 73
     1
 97
        0
 75
     0
 76
     1
 98
        1
 10
99021.74235510539
 20
113222.5596958131
1001
ACAD
1010
0.0
1020
0.0
1030
0.0
  0
CIRCLE
  5
1A8
330
1F
100
AcDbEntity
  8
0
 62
     7
100
AcDbCircle
 10
474666.6246644482
 20
620775.2129058387
 30
0.0
 40
8.588013678672721
  0
INSERT
  5
1A9
330
1F
100
AcDbEntity
  8
LIMITA
100
AcDbBlockReference
  2
ARROWP
 10
475595.2892492122
 20
622041.4000651561
 30
0.0
 41
30.67942665854936
 42
30.67942665854936
 43
30.6794266585332
  0
LWPOLYLINE
  5
1AA
330
1F
100
AcDbEntity
  8
0
370
    -2
100
AcDbPolyline
 90
        3
 70
     0
 43
0.0
 10
474548.0297353554
 20
621948.1082939581
 10
474548.0297353554
 20
622288.2679579057
 10
474967.3017283215
 20
622288.2679579057
  0
TEXT
  5
1AB
102
{ACAD_XDICTIONARY
360
1AC
102
}
330
1F
100
AcDbEntity
  8
0
 62
     7
100
AcDbText
 10
474705.8612916151
 20
620853.1760433226
 30
0.0
 40
9.460217016760207
  1
LEGENDA
  7
Arial
100
AcDbText
  0
TEXT
  5
1AE
330
1F
100
AcDbEntity
  8
0
 62
     7
370
    25
100
AcDbText
 10
474657.2779554006
 20
620818.855135344
 30
0.0
 40
6.396751958463245
  1
1691
 50
359.7489753052689
  7
ITALICC
 72
     1
 11
474669.9330470797
 21
620821.9980970835
 31
0.0
100
AcDbText
 73
     2
  0
TEXT
  5
1AF
330
1F
100
AcDbEntity
  8
0
100
AcDbText
 10
474709.5244665561
 20
620819.4920606689
 30
0.0
 40
7.462877284873794
  1
-
 50
0.2824138910189923
  7
ITALICC
 72
     1
 11
474714.1258944679
 21
620823.2462255028
 31
0.0
100
AcDbText
 73
     2
  0
TEXT
  5
1B0
330
1F
100
AcDbEntity
  8
0
 62
     7
370
    25
100
AcDbText
 10
474659.0888375775
 20
620796.380878466
 30
0.0
 40
6.396751958463245
  1
1F
 50
359.7489753052689
  7
ITALICC
 72
     1
 11
474666.413353785
 21
620799.5471947118
 31
0.0
100
AcDbText
 73
     2
  0
TEXT
  5
1B1
330
1F
100
AcDbEntity
  8
0
100
AcDbText
 10
474732.1266122175
 20
620819.3061867109
 30
0.0
 40
7.462877284873794
  1
Identificator
 50
0.2824138910189923
  7
ITALICC
 72
     1
 11
474770.6659507456
 21
620823.2276346342
 31
0.0
100
AcDbText
 73
     2
  0
TEXT
  5
1B2
330
1F
100
AcDbEntity
  8
0
100
AcDbText
 10
474729.747006617
 20
620794.3312610733
 30
0.0
 40
7.462877284873794
  1
Categorie de folosinta
 50
0.2824138910189923
  7
ITALICC
 72
     1
 11
474799.7366602189
 21
620798.4077304985
 31
0.0
100
AcDbText
 73
     2
  0
TEXT
  5
1B3
330
1F
100
AcDbEntity
  8
0
100
AcDbText
 10
474710.5138600857
 20
620794.5650208096
 30
0.0
 40
7.462877284873794
  1
-
 50
0.2824138910189923
  7
ITALICC
 72
     1
 11
474715.1152879975
 21
620798.3191856436
 31
0.0
100
AcDbText
 73
     2
  0
TEXT
  5
1B4
330
1F
100
AcDbEntity
  8
0
100
AcDbText
 10
474740.474781123
 20
620771.8459031081
 30
0.0
 40
7.462877284873794
  1
Sector Cadastral
 50
0.2824138910189923
  7
ITALICC
 72
     1
 11
474792.6958951352
 21
620775.8347897639
 31
0.0
100
AcDbText
 73
     2
  0
TEXT
  5
1B5
330
1F
100
AcDbEntity
  8
0
100
AcDbText
 10
474708.9794163361
 20
620770.9480997327
 30
0.0
 40
7.462877284873794
  1
-
 50
0.2824138910189923
  7
ITALICC
 72
     1
 11
474713.580844248
 21
620774.7022645667
 31
0.0
100
AcDbText
 73
     2
  0
LWPOLYLINE
  5
1B6
330
1F
100
AcDbEntity
  8
0
 62
     7
100
AcDbPolyline
 90
        5
 70
     0
 43
0.0
 10
474644.3321615402
 20
620756.4957021515
 10
474682.6638988696
 20
620756.4957021515
 10
474682.6638988696
 20
620745.0644642343
 10
474644.3321615402
 20
620745.0644642343
 10
474644.3321615402
 20
620756.4957021515
  0
TEXT
  5
1B7
330
1F
100
AcDbEntity
  8
0
100
AcDbText
 10
474710.2231679103
 20
620748.1072534718
 30
0.0
 40
7.462877284873794
  1
-
 50
0.2824138910189923
  7
ITALICC
 72
     1
 11
474714.8245958221
 21
620751.8614183057
 31
0.0
100
AcDbText
 73
     2
  0
LWPOLYLINE
  5
1B8
330
1F
100
AcDbEntity
  8
0
 62
     3
100
AcDbPolyline
 90
        5
 70
     0
 43
0.0
 10
474645.4302584917
 20
620734.0197592243
 10
474683.7619958216
 20
620734.0197592243
 10
474683.7619958216
 20
620722.5885213071
 10
474645.4302584917
 20
620722.5885213071
 10
474645.4302584917
 20
620734.0197592243
  0
TEXT
  5
1B9
330
1F
100
AcDbEntity
  8
0
100
AcDbText
 10
474711.3212648621
 20
620725.3504177373
 30
0.0
 40
7.462877284873794
  1
-
 50
0.2824138910189923
  7
ITALICC
 72
     1
 11
474715.9226927739
 21
620729.1045825712
 31
0.0
100
AcDbText
 73
     2
  0
TEXT
  5
1BA
330
1F
100
AcDbEntity
  8
0
100
AcDbText
 10
474727.643962522
 20
620723.1009600473
 30
0.0
 40
7.462877284873794
  1
limta Sector cadastral
 50
0.2824138910189923
  7
ITALICC
 72
     1
 11
474799.7658408747
 21
620727.1879394047
 31
0.0
100
AcDbText
 73
     2
  0
TEXT
  5
1BB
330
1F
100
AcDbEntity
  8
0
100
AcDbText
 10
474657.2592837742
 20
620771.8389870393
 30
0.0
 40
7.712133437576258
  1
146
  7
TITLE
 72
     4
 11
474666.247128234
 21
620775.64507745
 31
0.0
100
AcDbText
  0
TEXT
  5
1BC
330
1F
100
AcDbEntity
  8
0
100
AcDbText
 10
475113.8705430626
 20
620693.9891870803
 30
0.0
 40
8.0
  1
Scara 1:2000
  7
TITLE
 72
     4
 11
475147.1120164597
 21
620697.9891870803
 31
0.0
100
AcDbText
  0
TEXT
  5
1BD
330
1F
100
AcDbEntity
  8
0
100
AcDbText
 10
475088.0440494166
 20
620680.5325269737
 30
0.0
 40
8.0
  1
Data:Septembrie, 2023
  7
TITLE
 72
     4
 11
475145.5119893893
 21
620683.4902350228
 31
0.0
100
AcDbText
  0
TEXT
  5
1BE
330
1F
100
AcDbEntity
  8
0
100
AcDbText
 10
475308.542203808
 20
621183.8062836427
 30
0.0
 40
9.0
  1
Executant:
  7
TITLE
 72
     4
 11
475338.246501216
 21
621188.2326137928
 31
0.0
100
AcDbText
  0
TEXT
  5
1BF
330
1F
100
AcDbEntity
  8
0
100
AcDbText
 10
475116.8516276921
 20
621157.6064782398
 30
0.0
 40
9.0
  1
 SC Topo Construct Solution SRL . Clasa III, seria RO-B-J, nr. 2195/07.10.2021 
  7
TITLE
 72
     4
 11
475340.1295949499
 21
621160.9369693722
 31
0.0
100
AcDbText
  0
TEXT
  5
1C0
330
1F
100
AcDbEntity
  8
0
100
AcDbText
 10
475068.4335618077
 20
621136.0319739181
 30
0.0
 40
9.0
  1
reprezentata prin Ing. Poenar Ioan-Mihai( certificat de autorizare Cat. B, Seria RO-BN-F, Nr. 0126)
  7
TITLE
 72
     4
 11
475342.0126886836
 21
621139.2887952005
 31
0.0
100
AcDbText
  0
TEXT
  5
1C1
330
1F
100
AcDbEntity
  8
0
100
AcDbText
 10
475324.6932654067
 20
620965.3703006587
 30
0.0
 40
9.0
  1
CONTRASEMNEAZĂ
  7
TITLE
 72
     4
 11
475385.8269625418
 21
620970.8648436328
 31
0.0
100
AcDbText
  0
TEXT
  5
1C2
330
1F
100
AcDbEntity
  8
0
100
AcDbText
 10
475322.4306675197
 20
620949.375659445
 30
0.0
 40
9.0
  1
Tarnita Dumitru-Lucian
  7
TITLE
 72
     4
 11
475386.3668885293
 21
620953.8019895951
 31
0.0
100
AcDbText
  0
TEXT
  5
1C3
330
1F
100
AcDbEntity
  8
0
100
AcDbText
 10
475297.4318146534
 20
620934.0192460327
 30
0.0
 40
9.0
  1
PRIMARUL COMUNEI CETATE
  7
TITLE
 72
     4
 11
475387.8953207925
 21
620938.5223156097
 31
0.0
100
AcDbText
  0
TEXT
  5
1C4
330
1F
100
AcDbEntity
  8
0
100
AcDbText
 10
475126.1068927419
 20
622231.9326449937
 30
0.0
 40
10.0
  1
PLAN CADASTRAL
  7
TITLE
 72
     4
 11
475188.2146690038
 21
622236.9326449936
 31
0.0
100
AcDbText
  0
TEXT
  5
1C5
330
1F
100
AcDbEntity
  8
0
100
AcDbText
 10
475096.3410858684
 20
622206.1450562978
 30
0.0
 40
10.0
  1
=COPIE SPRE PUBLICARE=
  7
TITLE
 72
     4
 11
475188.73194535
 21
622211.1484669391
 31
0.0
100
AcDbText
  0
TEXT
  5
1C6
330
1F
100
AcDbEntity
  8
0
100
AcDbText
 10
475465.2035062735
 20
622203.9152416918
 30
0.0
 40
9.0
  1
U.A.T: Cetate
  7
TITLE
 72
     4
 11
475503.2846795341
 21
622208.4152416918
 31
0.0
100
AcDbText
  0
TEXT
  5
1C7
330
1F
100
AcDbEntity
  8
0
100
AcDbText
 10
475415.2727832546
 20
622180.448936773
 30
0.0
 40
9.0
  1
JUDE\U+021AUL: BISTRI\U+021AA-NĂSĂUD
  7
TITLE
 72
     4
 11
475503.6428378249
 21
622184.6880227212
 31
0.0
100
AcDbText
  0
TEXT
  5
1C8
330
1F
100
AcDbEntity
  8
0
100
AcDbText
 10
475437.614139987
 20
622156.5217026586
 30
0.0
 40
9.0
  1
Sector cadastral nr. 146
  7
TITLE
 72
     4
 11
475504.3559544481
 21
622161.0217026587
 31
0.0
100
AcDbText
  0
LWPOLYLINE
  5
1D3
330
1F
100
AcDbEntity
  8
Limita sector cadastral
100
AcDbPolyline
 90
       99
 70
     1
 43
0.0
 10
475432.2698281966
 20
621515.9060909306
 10
475373.3023871003
 20
621488.6114821744
 10
475191.4564414856
 20
621424.8540478579
 10
475171.6247867071
 20
621408.3671280325
 10
475167.1534051228
 20
621404.6498734455
 10
475129.2714540156
 20
621373.1569547904
 10
475113.7392057232
 20
621360.2443191494
 10
475095.2374567687
 20
621338.524351199
 10
475069.8671316128
 20
621304.2902984398
 10
475060.036900964
 20
621281.7311739993
 10
475065.4365631755
 20
621267.4759703199
 10
475048.007288449
 20
621234.3263261718
 10
475034.5984636834
 20
621208.9323606933
 10
474998.71369499
 20
621132.0623271362
 10
474984.9989015847
 20
620995.6640319469
 10
474981.8062364489
 20
620991.2167997191
 10
474978.677000001
 20
620982.0960000008
 10
474941.6436539378
 20
620936.1958319303
 10
474906.1143393709
 20
620897.5594175219
 10
474864.6527046674
 20
620855.6885780662
 10
474814.7929445589
 20
620889.9801565518
 10
474773.9881400796
 20
620923.1782531613
 10
474752.3558135083
 20
620960.9144721337
 10
474719.8099999986
 20
621019.9270000011
 10
474714.6230000001
 20
621037.3400000001
 10
474710.5529999994
 20
621048.2089999988
 10
474708.5210000014
 20
621064.368999999
 10
474701.459
 20
621088.2360000002
 10
474683.6209999993
 20
621124.6090000011
 10
474677.1730000005
 20
621137.7569999993
 10
474654.7190000003
 20
621155.4320000001
 10
474635.5830000006
 20
621178.5249999985
 10
474611.6889999993
 20
621225.7120000012
 10
474602.1279999985
 20
621247.4569999986
 10
474586.1
 20
621272.4470000001
 10
474582.5479999999
 20
621277.985
 10
474576.9730000012
 20
621287.4809999987
 10
474567.6869999989
 20
621300.4910000004
 10
474563.8245980624
 20
621305.3327822096
 10
474561.0300000012
 20
621308.8359999993
 10
474551.3978298556
 20
621320.2708107912
 10
474560.8457013044
 20
621332.989225821
 10
474572.6988865683
 20
621349.2282452589
 10
474576.1458097875
 20
621352.8041319646
 10
474594.1525149969
 20
621367.8378176955
 10
474618.9773526174
 20
621379.2134478786
 10
474634.5831988771
 20
621391.4539362658
 10
474669.5340354825
 20
621422.0776744467
 10
474696.4086324394
 20
621438.2713307408
 10
474729.4256876286
 20
621454.7405471638
 10
474757.9396722665
 20
621462.6084931996
 10
474778.6362851308
 20
621479.9186140719
 10
474793.9052616606
 20
621492.9207914348
 10
474837.826447849
 20
621531.7281186576
 10
474855.5778106664
 20
621547.3730628017
 10
474883.9447728705
 20
621579.5045491685
 10
474920.486939346
 20
621600.3729103353
 10
474927.2776978679
 20
621612.3510814109
 10
474939.3293531318
 20
621640.3706754287
 10
474952.0853126337
 20
621668.3526724374
 10
474975.8257031836
 20
621674.0199391709
 10
474991.7566216979
 20
621681.8171014004
 10
475007.1431983834
 20
621682.1071693291
 10
475024.8521518217
 20
621687.9094204213
 10
475039.9483675132
 20
621708.7972119728
 10
475064.3346014149
 20
621735.1969635586
 10
475080.1020213056
 20
621758.2890482396
 10
475085.7477481686
 20
621774.6996542501
 10
475090.3179460929
 20
621799.3474949384
 10
475095.4827447914
 20
621811.910221559
 10
475108.704429441
 20
621825.1610755171
 10
475117.2286315972
 20
621830.8524756265
 10
475127.1611806394
 20
621833.5227645781
 10
475141.2212673971
 20
621834.2822320277
 10
475177.6606004765
 20
621832.0692778868
 10
475211.861072267
 20
621821.3224011916
 10
475263.7411262976
 20
621811.9219621201
 10
475276.6143694385
 20
621809.0968895793
 10
475289.4637467226
 20
621803.1907350376
 10
475356.6923384132
 20
621745.3239043397
 10
475366.8784883529
 20
621735.1447513313
 10
475379.6114313769
 20
621726.4195080336
 10
475389.2975804048
 20
621724.1165877236
 10
475402.5310355397
 20
621725.3290757507
 10
475444.3675562195
 20
621737.6895395834
 10
475470.1974159081
 20
621743.8697715
 10
475489.903304083
 20
621746.1645463577
 10
475506.908295265
 20
621744.3017106459
 10
475521.82250249
 20
621742.6095546952
 10
475554.8260000013
 20
621738.8649999985
 10
475571.0940000004
 20
621734.5080000013
 10
475586.4409999996
 20
621726.528000001
 10
475597.5729999989
 20
621718.8850000016
 10
475620.3090000004
 20
621694.1979999989
 10
475635.7899999989
 20
621684.7939999998
 10
475659.6900000015
 20
621673.0199999996
 10
475672.3960000015
 20
621664.7360000014
 10
475611.7851721732
 20
621650.1968203152
 10
475517.3985883707
 20
621588.7755178029
  0
INSERT
  5
23A
330
1F
100
AcDbEntity
  8
Nr. imobil
100
AcDbBlockReference
 66
     1
  2
ID
 10
474827.7973856374
 20
620980.6236986643
 30
0.0
  0
ATTRIB
  5
23B
102
{ACAD_XDICTIONARY
360
23C
102
}
330
23A
100
AcDbEntity
  8
0 @ 1
100
AcDbText
 10
474823.9929767327
 20
620978.8286321691
 30
0.0
 40
4.5
  1
1691
 50
359.5963903652307
  7
ROMANC
100
AcDbAttribute
  2
ID
 70
     0
1001
AcadAnnotative
1000
AnnotativeData
1002
{
1070
     1
1070
     0
1002
}
1001
AcDbAttr
1070
     0
1070
     1
  0
SEQEND
  5
23E
330
23A
100
AcDbEntity
  8
Nr. imobil
  0
INSERT
  5
23F
330
1F
100
AcDbEntity
  8
Nr. imobil
100
AcDbBlockReference
 66
     1
  2
ID
 10
474750.5852020572
 20
621095.5884154678
 30
0.0
  0
ATTRIB
  5
240
102
{ACAD_XDICTIONARY
360
241
102
}
330
23F
100
AcDbEntity
  8
0 @ 1
100
AcDbText
 10
474746.7807931525
 20
621093.7933489727
 30
0.0
 40
4.5
  1
1692
 50
359.5963903652307
  7
ROMANC
100
AcDbAttribute
  2
ID
 70
     0
1001
AcadAnnotative
1000
AnnotativeData
1002
{
1070
     1
1070
     0
1002
}
1001
AcDbAttr
1070
     0
1070
     1
  0
SEQEND
  5
243
330
23F
100
AcDbEntity
  8
Nr. imobil
  0
INSERT
  5
244
330
1F
100
AcDbEntity
  8
Nr. imobil
100
AcDbBlockReference
 66
     1
  2
ID
 10
474686.7163053495
 20
621227.2808229809
 30
0.0
  0
ATTRIB
  5
245
102
{ACAD_XDICTIONARY
360
246
102
}
330
244
100
AcDbEntity
  8
0 @ 1
100
AcDbText
 10
474682.9118964448
 20
621225.4857564858
 30
0.0
 40
4.5
  1
1693
 50
359.5963903652307
  7
ROMANC
100
AcDbAttribute
  2
ID
 70
     0
1001
AcadAnnotative
1000
AnnotativeData
1002
{
1070
     1
1070
     0
1002
}
1001
AcDbAttr
1070
     0
1070
     1
  0
SEQEND
  5
248
330
244
100
AcDbEntity
  8
Nr. imobil
  0
INSERT
  5
249
330
1F
100
AcDbEntity
  8
Nr. imobil
100
AcDbBlockReference
 66
     1
  2
ID
 10
474580.5730210192
 20
621302.4605283036
 30
0.0
  0
ATTRIB
  5
24A
102
{ACAD_XDICTIONARY
360
24B
102
}
330
249
100
AcDbEntity
  8
0 @ 1
100
AcDbText
 10
474576.7686121146
 20
621300.6654618085
 30
0.0
 40
4.5
  1
1694
 50
359.5963903652307
  7
ROMANC
100
AcDbAttribute
  2
ID
 70
     0
1001
AcadAnnotative
1000
AnnotativeData
1002
{
1070
     1
1070
     0
1002
}
1001
AcDbAttr
1070
     0
1070
     1
  0
SEQEND
  5
24D
330
249
100
AcDbEntity
  8
Nr. imobil
  0
INSERT
  5
24E
330
1F
100
AcDbEntity
  8
Nr. imobil
100
AcDbBlockReference
 66
     1
  2
ID
 10
474574.0003640654
 20
621333.1428543905
 30
0.0
  0
ATTRIB
  5
24F
102
{ACAD_XDICTIONARY
360
250
102
}
330
24E
100
AcDbEntity
  8
0 @ 1
100
AcDbText
 10
474570.1959551605
 20
621331.3477878954
 30
0.0
 40
4.5
  1
1695
 50
359.5963903652307
  7
ROMANC
100
AcDbAttribute
  2
ID
 70
     0
1001
AcadAnnotative
1000
AnnotativeData
1002
{
1070
     1
1070
     0
1002
}
1001
AcDbAttr
1070
     0
1070
     1
  0
SEQEND
  5
252
330
24E
100
AcDbEntity
  8
Nr. imobil
  0
INSERT
  5
253
330
1F
100
AcDbEntity
  8
Nr. imobil
100
AcDbBlockReference
 66
     1
  2
ID
 10
474709.5882060068
 20
621374.654706749
 30
0.0
  0
ATTRIB
  5
254
102
{ACAD_XDICTIONARY
360
255
102
}
330
253
100
AcDbEntity
  8
0 @ 1
100
AcDbText
 10
474705.783797102
 20
621372.8596402539
 30
0.0
 40
4.5
  1
1696
 50
359.5963903652307
  7
ROMANC
100
AcDbAttribute
  2
ID
 70
     0
1001
AcadAnnotative
1000
AnnotativeData
1002
{
1070
     1
1070
     0
1002
}
1001
AcDbAttr
1070
     0
1070
     1
  0
SEQEND
  5
257
330
253
100
AcDbEntity
  8
Nr. imobil
  0
INSERT
  5
258
330
1F
100
AcDbEntity
  8
Nr. imobil
100
AcDbBlockReference
 66
     1
  2
ID
 10
474889.3140180435
 20
621232.7277911286
 30
0.0
  0
ATTRIB
  5
259
102
{ACAD_XDICTIONARY
360
25A
102
}
330
258
100
AcDbEntity
  8
0 @ 1
100
AcDbText
 10
474885.5096091386
 20
621230.9327246335
 30
0.0
 40
4.5
  1
1698
 50
359.5963903652307
  7
ROMANC
100
AcDbAttribute
  2
ID
 70
     0
1001
AcadAnnotative
1000
AnnotativeData
1002
{
1070
     1
1070
     0
1002
}
1001
AcDbAttr
1070
     0
1070
     1
  0
SEQEND
  5
25C
330
258
100
AcDbEntity
  8
Nr. imobil
  0
INSERT
  5
25D
330
1F
100
AcDbEntity
  8
Nr. imobil
100
AcDbBlockReference
 66
     1
  2
ID
 10
474966.9964726487
 20
621300.2888506068
 30
0.0
 50
319.3509739118385
  0
ATTRIB
  5
25E
102
{ACAD_XDICTIONARY
360
25F
102
}
330
25D
100
AcDbEntity
  8
0 @ 1
100
AcDbText
 10
474962.9406648624
 20
621301.4051901772
 30
0.0
 40
4.5
  1
1699
 50
318.9473642789317
  7
ROMANC
100
AcDbAttribute
  2
ID
 70
     0
1001
AcadAnnotative
1000
AnnotativeData
1002
{
1070
     1
1070
     0
1002
}
1001
AcDbAttr
1070
     0
1070
     1
  0
SEQEND
  5
261
330
25D
100
AcDbEntity
  8
Nr. imobil
  0
INSERT
  5
262
330
1F
100
AcDbEntity
  8
Nr. imobil
100
AcDbBlockReference
 66
     1
  2
ID
 10
475042.5319093204
 20
621304.9637137914
 30
0.0
  0
ATTRIB
  5
263
102
{ACAD_XDICTIONARY
360
264
102
}
330
262
100
AcDbEntity
  8
0 @ 1
100
AcDbText
 10
475038.7275004157
 20
621303.1686472964
 30
0.0
 40
4.5
  1
1700
 50
359.5963903652307
  7
ROMANC
100
AcDbAttribute
  2
ID
 70
     0
1001
AcadAnnotative
1000
AnnotativeData
1002
{
1070
     1
1070
     0
1002
}
1001
AcDbAttr
1070
     0
1070
     1
  0
SEQEND
  5
266
330
262
100
AcDbEntity
  8
Nr. imobil
  0
INSERT
  5
267
330
1F
100
AcDbEntity
  8
Nr. imobil
 62
     2
100
AcDbBlockReference
  2
*U3
 10
0.0
 20
0.0
 30
0.0
1001
AcadAnnotativeAttributeDecomposition
1000
AnnotativeData
1002
{
1070
     1
1070
     1
1002
}
  0
INSERT
  5
268
330
1F
100
AcDbEntity
  8
Nr. imobil
100
AcDbBlockReference
 66
     1
  2
ID
 10
474820.32919082
 20
621453.9418147982
 30
0.0
 50
311.7188707363654
  0
ATTRIB
  5
269
102
{ACAD_XDICTIONARY
360
26A
102
}
330
268
100
AcDbEntity
  8
0 @ 1
100
AcDbText
 10
474816.4575753127
 20
621455.5869239742
 30
0.0
 40
4.5
  1
1702
 50
311.3152610990935
  7
ROMANC
100
AcDbAttribute
  2
ID
 70
     0
1001
AcadAnnotative
1000
AnnotativeData
1002
{
1070
     1
1070
     0
1002
}
1001
AcDbAttr
1070
     0
1070
     1
  0
SEQEND
  5
26C
330
268
100
AcDbEntity
  8
Nr. imobil
  0
INSERT
  5
26D
330
1F
100
AcDbEntity
  8
Nr. imobil
100
AcDbBlockReference
 66
     1
  2
ID
 10
474888.9019342498
 20
621511.3282104185
 30
0.0
  0
ATTRIB
  5
26E
102
{ACAD_XDICTIONARY
360
26F
102
}
330
26D
100
AcDbEntity
  8
0 @ 1
100
AcDbText
 10
474885.0975253449
 20
621509.5331439234
 30
0.0
 40
4.5
  1
1703
 50
359.5963903652307
  7
ROMANC
100
AcDbAttribute
  2
ID
 70
     0
1001
AcadAnnotative
1000
AnnotativeData
1002
{
1070
     1
1070
     0
1002
}
1001
AcDbAttr
1070
     0
1070
     1
  0
SEQEND
  5
271
330
26D
100
AcDbEntity
  8
Nr. imobil
  0
INSERT
  5
272
330
1F
100
AcDbEntity
  8
Nr. imobil
100
AcDbBlockReference
 66
     1
  2
ID
 10
475140.1632653637
 20
621577.2757580471
 30
0.0
  0
ATTRIB
  5
273
102
{ACAD_XDICTIONARY
360
274
102
}
330
272
100
AcDbEntity
  8
0 @ 1
100
AcDbText
 10
475136.3588564589
 20
621575.480691552
 30
0.0
 40
4.5
  1
1704
 50
359.5963903652307
  7
ROMANC
100
AcDbAttribute
  2
ID
 70
     0
1001
AcadAnnotative
1000
AnnotativeData
1002
{
1070
     1
1070
     0
1002
}
1001
AcDbAttr
1070
     0
1070
     1
  0
SEQEND
  5
276
330
272
100
AcDbEntity
  8
Nr. imobil
  0
INSERT
  5
277
330
1F
100
AcDbEntity
  8
Nr. imobil
100
AcDbBlockReference
 66
     1
  2
ID
 10
475148.9824444442
 20
621810.5466000966
 30
0.0
 50
307.6551658481323
  0
ATTRIB
  5
278
102
{ACAD_XDICTIONARY
360
279
102
}
330
277
100
AcDbEntity
  8
0 @ 1
100
AcDbText
 10
475145.2371442844
 20
621812.4619375473
 30
0.0
 40
4.5
  1
1705
 50
307.2515562152748
  7
ROMANC
100
AcDbAttribute
  2
ID
 70
     0
1001
AcadAnnotative
1000
AnnotativeData
1002
{
1070
     1
1070
     0
1002
}
1001
AcDbAttr
1070
     0
1070
     1
  0
SEQEND
  5
27B
330
277
100
AcDbEntity
  8
Nr. imobil
  0
INSERT
  5
27C
330
1F
100
AcDbEntity
  8
Nr. imobil
100
AcDbBlockReference
 66
     1
  2
ID
 10
475189.6212758731
 20
621787.2861881196
 30
0.0
  0
ATTRIB
  5
27D
102
{ACAD_XDICTIONARY
360
27E
102
}
330
27C
100
AcDbEntity
  8
0 @ 1
100
AcDbText
 10
475185.8168669683
 20
621785.4911216245
 30
0.0
 40
4.5
  1
1706
 50
359.5963903652307
  7
ROMANC
100
AcDbAttribute
  2
ID
 70
     0
1001
AcadAnnotative
1000
AnnotativeData
1002
{
1070
     1
1070
     0
1002
}
1001
AcDbAttr
1070
     0
1070
     1
  0
SEQEND
  5
280
330
27C
100
AcDbEntity
  8
Nr. imobil
  0
INSERT
  5
281
330
1F
100
AcDbEntity
  8
Nr. imobil
100
AcDbBlockReference
 66
     1
  2
ID
 10
475312.2429114794
 20
621740.344978455
 30
0.0
  0
ATTRIB
  5
282
102
{ACAD_XDICTIONARY
360
283
102
}
330
281
100
AcDbEntity
  8
0 @ 1
100
AcDbText
 10
475308.4385025746
 20
621738.54991196
 30
0.0
 40
4.5
  1
1707
 50
359.5963903652307
  7
ROMANC
100
AcDbAttribute
  2
ID
 70
     0
1001
AcadAnnotative
1000
AnnotativeData
1002
{
1070
     1
1070
     0
1002
}
1001
AcDbAttr
1070
     0
1070
     1
  0
SEQEND
  5
285
330
281
100
AcDbEntity
  8
Nr. imobil
  0
LWPOLYLINE
  5
29C
330
1F
100
AcDbEntity
  8
Terenuri
 62
     7
100
AcDbPolyline
 90
        9
 70
     1
 43
0.0
 10
474569.4878429577
 20
621297.9679581211
 10
474576.9730000012
 20
621287.4809999987
 10
474618.60858
 20
621302.07054
 10
474637.3284804425
 20
621298.5298262071
 10
474615.6663887533
 20
621307.9261335911
 10
474600.7695213516
 20
621310.8168396139
 10
474583.2732532643
 20
621309.3890862768
 10
474563.8245980624
 20
621305.3327822096
 10
474567.6869999989
 20
621300.4910000004
  0
LWPOLYLINE
  5
29D
330
1F
100
AcDbEntity
  8
Terenuri
 62
     7
100
AcDbPolyline
 90
       19
 70
     1
 43
0.0
 10
474616.8573058866
 20
621311.7696518992
 10
474639.5969215092
 20
621301.9059498499
 10
474650.3545132711
 20
621291.3914619704
 10
474663.2788975336
 20
621276.5763412946
 10
474673.5841744862
 20
621274.1806145544
 10
474700.4259899465
 20
621277.5346646032
 10
474729.185029234
 20
621288.3152718704
 10
474769.7849428866
 20
621316.9389231615
 10
474853.2474102613
 20
621393.6270938436
 10
474778.6362851308
 20
621479.9186140719
 10
474757.9396722665
 20
621462.6084931996
 10
474729.4256876286
 20
621454.7405471638
 10
474696.4086324394
 20
621438.2713307408
 10
474669.5340354825
 20
621422.0776744467
 10
474634.5831988771
 20
621391.4539362658
 10
474618.9773526174
 20
621379.2134478786
 10
474594.1525149969
 20
621367.8378176955
 10
474576.1458097875
 20
621352.8041319646
 10
474608.9007300001
 20
621321.23051
  0
LWPOLYLINE
  5
29E
330
1F
100
AcDbEntity
  8
Terenuri
 62
     7
100
AcDbPolyline
 90
       19
 70
     1
 43
0.0
 10
474576.9730000012
 20
621287.4809999987
 10
474582.5479999999
 20
621277.985
 10
474586.1
 20
621272.4470000001
 10
474602.1279999999
 20
621247.4570000003
 10
474611.6889999993
 20
621225.7120000012
 10
474635.5830000006
 20
621178.5249999985
 10
474654.7190000003
 20
621155.4320000001
 10
474677.1730000005
 20
621137.7569999993
 10
474697.2289999984
 20
621129.2969999984
 10
474817.2110247774
 20
621240.9316364958
 10
474805.2627836542
 20
621254.9535352285
 10
474771.0313163021
 20
621302.8748264846
 10
474730.7138034282
 20
621284.616542862
 10
474701.3891526218
 20
621273.6239105829
 10
474673.3727760168
 20
621270.1230918899
 10
474661.1142958822
 20
621272.9728909579
 10
474647.4448498871
 20
621288.6420700748
 10
474637.3284804425
 20
621298.5298262071
 10
474618.60858
 20
621302.07054
  0
LWPOLYLINE
  5
29F
330
1F
100
AcDbEntity
  8
Terenuri
 62
     7
100
AcDbPolyline
 90
        4
 70
     1
 43
0.0
 10
474853.2474102613
 20
621393.6270938436
 10
474865.6538724667
 20
621406.6775444564
 10
474793.9052616606
 20
621492.9207914348
 10
474778.6362851308
 20
621479.9186140719
  0
LWPOLYLINE
  5
2A0
330
1F
100
AcDbEntity
  8
Terenuri
 62
     7
100
AcDbPolyline
 90
        9
 70
     1
 43
0.0
 10
475048.007288449
 20
621234.3263261718
 10
475065.4365631755
 20
621267.4759703199
 10
475060.036900964
 20
621281.7311739993
 10
475069.8671316128
 20
621304.2902984398
 10
475095.2374567687
 20
621338.524351199
 10
475113.7392057232
 20
621360.2443191494
 10
475129.2714540156
 20
621373.1569547904
 10
475111.868567644
 20
621393.0141140881
 10
475000.6502736243
 20
621279.0857794312
  0
LWPOLYLINE
  5
2A1
330
1F
100
AcDbEntity
  8
Terenuri
 62
     7
100
AcDbPolyline
 90
        4
 70
     1
 43
0.0
 10
475141.2212673964
 20
621834.2822320277
 10
475177.6606004765
 20
621832.0692778868
 10
475286.7150017663
 20
621689.6258861524
 10
475251.2814860561
 20
621668.0274377258
  0
LWPOLYLINE
  5
2A2
330
1F
100
AcDbEntity
  8
Terenuri
 62
     7
100
AcDbPolyline
 90
        4
 70
     1
 43
0.0
 10
475251.2814860561
 20
621668.0274377258
 10
475241.4384421043
 20
621661.9796275086
 10
475127.1611806394
 20
621833.5227645781
 10
475141.2212673971
 20
621834.2822320277
  0
LWPOLYLINE
  5
2A3
330
1F
100
AcDbEntity
  8
Terenuri
 62
     7
100
AcDbPolyline
 90
        5
 70
     1
 43
0.0
 10
474903.3477734776
 20
621371.051177239
 10
474876.9254076302
 20
621357.2634884958
 10
475034.5984636834
 20
621208.9323606933
 10
475048.007288449
 20
621234.3263261718
 10
475000.6502736243
 20
621279.0857794312
  0
LWPOLYLINE
  5
2A4
330
1F
100
AcDbEntity
  8
Terenuri
 62
     7
100
AcDbPolyline
 90
       22
 70
     1
 43
0.0
 10
474719.8099999986
 20
621019.9270000011
 10
474714.6230000001
 20
621037.3400000001
 10
474710.5529999998
 20
621048.2090000002
 10
474708.5210000014
 20
621064.368999999
 10
474701.459
 20
621088.2360000002
 10
474683.6209999993
 20
621124.6090000011
 10
474694.2239999995
 20
621120.2329999991
 10
474717.438000001
 20
621100.3940000014
 10
474727.7630000003
 20
621095.1360000001
 10
474743.2049999982
 20
621092.5920000001
 10
474763.4679999985
 20
621089.9789999984
 10
474813.7199999987
 20
621077.6099999995
 10
474838.1339999997
 20
621074.2950000017
 10
474909.3399999999
 20
621055.8819999993
 10
474932.4899999984
 20
621033.8729999997
 10
474978.677000001
 20
620982.0960000008
 10
474941.6436539378
 20
620936.1958319303
 10
474906.1143393709
 20
620897.5594175219
 10
474864.6527046674
 20
620855.6885780662
 10
474814.7929445589
 20
620889.9801565518
 10
474773.9881400796
 20
620923.1782531613
 10
474752.3558135083
 20
620960.9144721337
  0
LWPOLYLINE
  5
2A5
330
1F
100
AcDbEntity
  8
Terenuri
 62
     7
100
AcDbPolyline
 90
       54
 70
     1
 43
0.0
 10
474561.0300000012
 20
621308.8359999993
 10
474563.8245980624
 20
621305.3327822096
 10
474583.2732532643
 20
621309.3890862768
 10
474600.7695213516
 20
621310.8168396139
 10
474615.6663887533
 20
621307.9261335911
 10
474637.3284804425
 20
621298.5298262071
 10
474647.4448498871
 20
621288.6420700748
 10
474661.1142958822
 20
621272.9728909579
 10
474673.3727760168
 20
621270.1230918899
 10
474701.3891526218
 20
621273.6239105829
 10
474730.7138034282
 20
621284.616542862
 10
474771.0313163021
 20
621302.8748264846
 10
474792.1920748761
 20
621312.4577373383
 10
474809.9745382801
 20
621327.1107064553
 10
474850.0962738584
 20
621343.3444630609
 10
474875.8318722646
 20
621356.6928611215
 10
474876.9254076302
 20
621357.2634884958
 10
474903.3477734776
 20
621371.051177239
 10
474929.9245868772
 20
621385.9712984577
 10
474941.1462215192
 20
621391.4910006338
 10
474946.5817859874
 20
621392.1209063929
 10
474969.8717242176
 20
621389.8418226214
 10
474996.2426827383
 20
621386.9930305403
 10
475021.5891902104
 20
621389.7524558939
 10
475067.0310314911
 20
621401.2929387723
 10
475092.0708618788
 20
621408.2724964207
 10
475106.7036290929
 20
621409.4334754777
 10
475134.4661969738
 20
621406.7787849972
 10
475167.1534051228
 20
621404.6498734455
 10
475171.6247867071
 20
621408.3671280325
 10
475134.7866287746
 20
621410.7663901415
 10
475106.7360644923
 20
621413.4486191878
 10
475091.36918026
 20
621412.2293945189
 10
475066.0015928663
 20
621405.1584784673
 10
475020.8769400643
 20
621393.6985492837
 10
474996.2410116509
 20
621391.0164833008
 10
474970.2813237155
 20
621393.8208467964
 10
474946.545933631
 20
621396.1435211555
 10
474940.0000973539
 20
621395.3849504507
 10
474928.047167109
 20
621389.5055382987
 10
474906.9872532149
 20
621377.4621684483
 10
474873.9857737697
 20
621360.2413741678
 10
474848.4215771749
 20
621346.9818778524
 10
474807.9048530803
 20
621330.5883039472
 10
474790.0581926827
 20
621315.882435716
 10
474729.185029234
 20
621288.3152718704
 10
474700.4259899465
 20
621277.5346646032
 10
474673.5841744862
 20
621274.1806145544
 10
474663.2788975336
 20
621276.5763412946
 10
474650.3545132711
 20
621291.3914619704
 10
474639.5969215092
 20
621301.9059498499
 10
474616.8573058866
 20
621311.7696518992
 10
474600.9919661887
 20
621314.8482879496
 10
474582.7000370921
 20
621313.3556060426
  0
LWPOLYLINE
  5
2A6
330
1F
100
AcDbEntity
  8
Terenuri
 62
     7
100
AcDbPolyline
 90
       23
 70
     1
 43
0.0
 10
474697.2289999984
 20
621129.2969999984
 10
474722.4409999996
 20
621108.278999999
 10
474733.2320000007
 20
621103.5720000007
 10
474764.7769999988
 20
621099.6460000016
 10
474786.4899999984
 20
621094.686999999
 10
474814.2509999983
 20
621087.4090000018
 10
474838.982999999
 20
621083.6469999999
 10
474867.7890000008
 20
621078.3819999993
 10
474912.7039999999
 20
621065.4180000015
 10
474938.9880000018
 20
621040.1130000018
 10
474969.9450000004
 20
621005.2140000015
 10
474981.8062364489
 20
620991.2167997191
 10
474984.9989015847
 20
620995.6640319469
 10
474998.71369499
 20
621132.0623271362
 10
475034.5984636834
 20
621208.9323606933
 10
474876.9254076302
 20
621357.2634884958
 10
474875.8318722646
 20
621356.6928611215
 10
474850.0962738584
 20
621343.3444630609
 10
474809.9745382801
 20
621327.1107064553
 10
474792.1920748761
 20
621312.4577373383
 10
474771.0313163021
 20
621302.8748264846
 10
474805.2627836542
 20
621254.9535352285
 10
474817.2110247774
 20
621240.9316364958
  0
LWPOLYLINE
  5
2A7
330
1F
100
AcDbEntity
  8
Terenuri
 62
     7
100
AcDbPolyline
 90
       24
 70
     1
 43
0.0
 10
474677.1730000005
 20
621137.7569999993
 10
474683.6209999993
 20
621124.6090000011
 10
474694.2239999995
 20
621120.2329999991
 10
474717.438000001
 20
621100.3940000014
 10
474727.7630000003
 20
621095.1360000001
 10
474743.2049999982
 20
621092.5920000001
 10
474763.4679999985
 20
621089.9789999984
 10
474813.7199999987
 20
621077.6099999995
 10
474838.1339999997
 20
621074.2950000017
 10
474909.3399999999
 20
621055.8819999993
 10
474932.4899999984
 20
621033.8729999997
 10
474978.677000001
 20
620982.0960000008
 10
474981.8062364489
 20
620991.2167997191
 10
474969.9450000004
 20
621005.2140000015
 10
474938.9880000018
 20
621040.1130000018
 10
474912.7039999999
 20
621065.4180000015
 10
474867.7890000008
 20
621078.3819999993
 10
474838.982999999
 20
621083.6469999999
 10
474814.2509999983
 20
621087.4090000018
 10
474786.4899999984
 20
621094.686999999
 10
474764.7769999988
 20
621099.6460000016
 10
474733.2320000007
 20
621103.5720000007
 10
474722.4409999996
 20
621108.278999999
 10
474697.2289999984
 20
621129.2969999984
  0
LWPOLYLINE
  5
2A8
330
1F
100
AcDbEntity
  8
Terenuri
 62
     7
100
AcDbPolyline
 90
       15
 70
     1
 43
0.0
 10
475000.6502736243
 20
621279.0857794312
 10
474903.3477734776
 20
621371.051177239
 10
474929.9245868772
 20
621385.9712984577
 10
474941.1462215192
 20
621391.4910006338
 10
474946.5817859874
 20
621392.1209063929
 10
474969.8717242176
 20
621389.8418226214
 10
474996.2426827383
 20
621386.9930305403
 10
475021.5891902104
 20
621389.7524558939
 10
475067.0310314911
 20
621401.2929387723
 10
475092.0708618788
 20
621408.2724964207
 10
475106.7036290929
 20
621409.4334754777
 10
475134.4661969738
 20
621406.7787849972
 10
475167.1534051228
 20
621404.6498734455
 10
475129.2714540156
 20
621373.1569547904
 10
475111.868567644
 20
621393.0141140881
  0
LWPOLYLINE
  5
2A9
330
1F
100
AcDbEntity
  8
Terenuri
 62
     7
100
AcDbPolyline
 90
       56
 70
     1
 43
0.0
 10
474729.185029234
 20
621288.3152718704
 10
474769.7849428866
 20
621316.9389231615
 10
474853.2474102613
 20
621393.6270938436
 10
474865.6538724667
 20
621406.6775444564
 10
474917.3164219146
 20
621442.4488489798
 10
475015.0821757721
 20
621525.4352972852
 10
474927.2776978679
 20
621612.3510814109
 10
474939.3293531318
 20
621640.3706754287
 10
474952.0853126337
 20
621668.3526724374
 10
474975.8257031836
 20
621674.0199391709
 10
474991.7566216979
 20
621681.8171014004
 10
475007.1431983834
 20
621682.1071693291
 10
475024.8521518217
 20
621687.9094204213
 10
475039.9483675132
 20
621708.7972119728
 10
475064.3346014149
 20
621735.1969635586
 10
475080.1020213056
 20
621758.2890482396
 10
475085.7477481686
 20
621774.6996542501
 10
475090.3179460929
 20
621799.3474949384
 10
475095.4827447914
 20
621811.910221559
 10
475108.704429441
 20
621825.1610755171
 10
475117.2286315972
 20
621830.8524756265
 10
475127.1611806394
 20
621833.5227645781
 10
475241.4384421043
 20
621661.9796275086
 10
475251.2814860561
 20
621668.0274377258
 10
475286.7150017663
 20
621689.6258861524
 10
475333.9919803992
 20
621621.9042402169
 10
475521.82250249
 20
621742.6095546952
 10
475554.8260000013
 20
621738.8649999985
 10
475571.0940000004
 20
621734.5080000013
 10
475586.4409999996
 20
621726.528000001
 10
475597.5729999989
 20
621718.8850000016
 10
475620.3090000004
 20
621694.1979999989
 10
475635.7899999989
 20
621684.7939999998
 10
475659.6900000015
 20
621673.0199999996
 10
475672.3960000015
 20
621664.7360000014
 10
475611.7851721732
 20
621650.1968203152
 10
475517.3985883707
 20
621588.7755178029
 10
475432.2698281966
 20
621515.9060909306
 10
475373.3023871003
 20
621488.6114821744
 10
475191.4564414856
 20
621424.8540478579
 10
475171.6247867071
 20
621408.3671280325
 10
475134.7866287746
 20
621410.7663901415
 10
475106.7360644923
 20
621413.4486191878
 10
475091.36918026
 20
621412.2293945189
 10
475066.0015928663
 20
621405.1584784673
 10
475020.8769400643
 20
621393.6985492837
 10
474996.2410116509
 20
621391.0164833008
 10
474970.2813237155
 20
621393.8208467964
 10
474946.545933631
 20
621396.1435211555
 10
474940.0000973539
 20
621395.3849504507
 10
474928.047167109
 20
621389.5055382987
 10
474906.9872532149
 20
621377.4621684483
 10
474873.9857737697
 20
621360.2413741678
 10
474848.4215771749
 20
621346.9818778524
 10
474807.9048530803
 20
621330.5883039472
 10
474790.0581926827
 20
621315.882435716
  0
INSERT
  5
346
330
1F
100
AcDbEntity
  8
0
 62
     2
100
AcDbBlockReference
  2
*U4
 10
0.0
 20
0.0
 30
0.0
1001
AcadAnnotativeAttributeDecomposition
1000
AnnotativeData
1002
{
1070
     1
1070
     1
1002
}
  0
INSERT
  5
347
330
1F
100
AcDbEntity
  8
Categorie de folosinta
 62
     2
100
AcDbBlockReference
  2
*U9
 10
0.0
 20
0.0
 30
0.0
1001
AcadAnnotativeAttributeDecomposition
1000
AnnotativeData
1002
{
1070
     1
1070
     1
1002
}
  0
INSERT
  5
349
330
1F
100
AcDbEntity
  8
Categorie de folosinta
 62
     2
100
AcDbBlockReference
  2
*U5
 10
0.0
 20
0.0
 30
0.0
1001
AcadAnnotativeAttributeDecomposition
1000
AnnotativeData
1002
{
1070
     1
1070
     1
1002
}
  0
INSERT
  5
34A
330
1F
100
AcDbEntity
  8
Categorie de folosinta
 62
     2
100
AcDbBlockReference
  2
*U6
 10
0.0
 20
0.0
 30
0.0
1001
AcadAnnotativeAttributeDecomposition
1000
AnnotativeData
1002
{
1070
     1
1070
     1
1002
}
  0
INSERT
  5
34B
330
1F
100
AcDbEntity
  8
Categorie de folosinta
 62
     2
100
AcDbBlockReference
  2
*U7
 10
0.0
 20
0.0
 30
0.0
1001
AcadAnnotativeAttributeDecomposition
1000
AnnotativeData
1002
{
1070
     1
1070
     1
1002
}
  0
INSERT
  5
34C
330
1F
100
AcDbEntity
  8
Categorie de folosinta
 62
     2
100
AcDbBlockReference
  2
*U11
 10
0.0
 20
0.0
 30
0.0
1001
AcadAnnotativeAttributeDecomposition
1000
AnnotativeData
1002
{
1070
     1
1070
     1
1002
}
  0
INSERT
  5
34D
330
1F
100
AcDbEntity
  8
Categorie de folosinta
 62
     2
100
AcDbBlockReference
  2
*U8
 10
0.0
 20
0.0
 30
0.0
1001
AcadAnnotativeAttributeDecomposition
1000
AnnotativeData
1002
{
1070
     1
1070
     1
1002
}
  0
INSERT
  5
34E
330
1F
100
AcDbEntity
  8
Categorie de folosinta
 62
     2
100
AcDbBlockReference
  2
*U12
 10
0.0
 20
0.0
 30
0.0
1001
AcadAnnotativeAttributeDecomposition
1000
AnnotativeData
1002
{
1070
     1
1070
     1
1002
}
  0
INSERT
  5
34F
330
1F
100
AcDbEntity
  8
Categorie de folosinta
100
AcDbBlockReference
 66
     1
  2
ID
 10
475001.4612700548
 20
621340.9330428794
 30
0.0
  0
ATTRIB
  5
350
102
{ACAD_XDICTIONARY
360
351
102
}
330
34F
100
AcDbEntity
  8
0 @ 1
100
AcDbText
 10
474997.65686115
 20
621339.1379763843
 30
0.0
 40
4.5
  1
1N
 50
359.5963903652307
  7
ROMANC
100
AcDbAttribute
  2
ID
 70
     0
1001
AcadAnnotative
1000
AnnotativeData
1002
{
1070
     1
1070
     0
1002
}
1001
AcDbAttr
1070
     0
1070
     1
  0
SEQEND
  5
353
330
34F
100
AcDbEntity
  8
Categorie de folosinta
  0
INSERT
  5
354
330
1F
100
AcDbEntity
  8
Categorie de folosinta
 62
     2
100
AcDbBlockReference
  2
*U13
 10
0.0
 20
0.0
 30
0.0
1001
AcadAnnotativeAttributeDecomposition
1000
AnnotativeData
1002
{
1070
     1
1070
     1
1002
}
  0
INSERT
  5
355
330
1F
100
AcDbEntity
  8
Categorie de folosinta
100
AcDbBlockReference
 66
     1
  2
ID
 10
475141.5213462607
 20
621555.8286878583
 30
0.0
  0
ATTRIB
  5
356
102
{ACAD_XDICTIONARY
360
357
102
}
330
355
100
AcDbEntity
  8
0 @ 1
100
AcDbText
 10
475137.7169373559
 20
621554.0336213632
 30
0.0
 40
4.5
  1
1N
 50
359.5963903652307
  7
ROMANC
100
AcDbAttribute
  2
ID
 70
     0
1001
AcadAnnotative
1000
AnnotativeData
1002
{
1070
     1
1070
     0
1002
}
1001
AcDbAttr
1070
     0
1070
     1
  0
SEQEND
  5
359
330
355
100
AcDbEntity
  8
Categorie de folosinta
  0
INSERT
  5
35A
330
1F
100
AcDbEntity
  8
Categorie de folosinta
 62
     2
100
AcDbBlockReference
  2
*U14
 10
0.0
 20
0.0
 30
0.0
1001
AcadAnnotativeAttributeDecomposition
1000
AnnotativeData
1002
{
1070
     1
1070
     1
1002
}
  0
INSERT
  5
35B
330
1F
100
AcDbEntity
  8
Categorie de folosinta
 62
     2
100
AcDbBlockReference
  2
*U15
 10
0.0
 20
0.0
 30
0.0
1001
AcadAnnotativeAttributeDecomposition
1000
AnnotativeData
1002
{
1070
     1
1070
     1
1002
}
  0
INSERT
  5
35C
330
1F
100
AcDbEntity
  8
Categorie de folosinta
 62
     2
100
AcDbBlockReference
  2
*U16
 10
0.0
 20
0.0
 30
0.0
1001
AcadAnnotativeAttributeDecomposition
1000
AnnotativeData
1002
{
1070
     1
1070
     1
1002
}
  0
INSERT
  5
35D
330
1F
100
AcDbEntity
  8
Categorie de folosinta
 62
     2
100
AcDbBlockReference
  2
*U17
 10
0.0
 20
0.0
 30
0.0
1001
AcadAnnotativeAttributeDecomposition
1000
AnnotativeData
1002
{
1070
     1
1070
     1
1002
}
  0
TEXT
  5
36D
330
1F
100
AcDbEntity
  8
0
100
AcDbText
 10
474744.4268219818
 20
620748.1170753585
 30
0.0
 40
7.462877284873794
  1
limita teren
 50
0.2824138910189923
  7
ITALICC
 72
     1
 11
474783.3215313018
 21
620752.0402749373
 31
0.0
100
AcDbText
 73
     2
  0
LWPOLYLINE
  5
36E
330
1F
100
AcDbEntity
  8
0
 62
    38
100
AcDbPolyline
 90
        5
 70
     0
 43
0.0
 10
474645.4120386537
 20
620713.230181865
 10
474683.7437759835
 20
620713.230181865
 10
474683.7437759835
 20
620701.7989439479
 10
474645.4120386537
 20
620701.7989439479
 10
474645.4120386537
 20
620713.230181865
  0
TEXT
  5
36F
330
1F
100
AcDbEntity
  8
0
100
AcDbText
 10
474711.3030450242
 20
620704.5608403781
 30
0.0
 40
7.462877284873794
  1
-
 50
0.2824138910189923
  7
ITALICC
 72
     1
 11
474715.9044729359
 21
620708.315005212
 31
0.0
100
AcDbText
 73
     2
  0
TEXT
  5
370
330
1F
100
AcDbEntity
  8
0
100
AcDbText
 10
474777.733024327
 20
620702.5583660977
 30
0.0
 40
7.462877284873794
  1
Parcele
 50
0.2824138910189923
  7
ITALICC
 72
     1
 11
474799.7476210367
 21
620706.3983620455
 31
0.0
100
AcDbText
 73
     2
  0
LWPOLYLINE
  5
378
330
1F
100
AcDbEntity
  8
Terenuri
 62
     7
100
AcDbPolyline
 90
       10
 70
     0
 43
0.0
 10
474917.316
 20
621442.449
 10
475015.082
 20
621525.4350000001
 10
474927.278
 20
621612.351
 10
474920.487
 20
621600.373
 10
474883.9450000001
 20
621579.505
 10
474855.578
 20
621547.3730000001
 10
474837.826
 20
621531.728
 10
474793.9050000001
 20
621492.9210000001
 10
474865.654
 20
621406.6779999999
 10
474917.316
 20
621442.449
  0
LWPOLYLINE
  5
38E
330
1F
100
AcDbEntity
  8
Parcele
100
AcDbPolyline
 90
        9
 70
     1
 43
0.0
 10
474569.4878429577
 20
621297.9679581211
 10
474576.9730000012
 20
621287.4809999987
 10
474618.60858
 20
621302.07054
 10
474637.3284804425
 20
621298.5298262071
 10
474615.6663887533
 20
621307.9261335911
 10
474600.7695213516
 20
621310.8168396139
 10
474583.2732532643
 20
621309.3890862768
 10
474563.8245980624
 20
621305.3327822096
 10
474567.6869999989
 20
621300.4910000004
  0
LWPOLYLINE
  5
38F
330
1F
100
AcDbEntity
  8
Parcele
100
AcDbPolyline
 90
       19
 70
     1
 43
0.0
 10
474616.8573058866
 20
621311.7696518992
 10
474639.5969215092
 20
621301.9059498499
 10
474650.3545132711
 20
621291.3914619704
 10
474663.2788975336
 20
621276.5763412946
 10
474673.5841744862
 20
621274.1806145544
 10
474700.4259899465
 20
621277.5346646032
 10
474729.185029234
 20
621288.3152718704
 10
474769.7849428866
 20
621316.9389231615
 10
474853.2474102613
 20
621393.6270938436
 10
474778.6362851308
 20
621479.9186140719
 10
474757.9396722665
 20
621462.6084931996
 10
474729.4256876286
 20
621454.7405471638
 10
474696.4086324394
 20
621438.2713307408
 10
474669.5340354825
 20
621422.0776744467
 10
474634.5831988771
 20
621391.4539362658
 10
474618.9773526174
 20
621379.2134478786
 10
474594.1525149969
 20
621367.8378176955
 10
474576.1458097875
 20
621352.8041319646
 10
474608.9007300001
 20
621321.23051
  0
LWPOLYLINE
  5
390
330
1F
100
AcDbEntity
  8
Parcele
100
AcDbPolyline
 90
       19
 70
     1
 43
0.0
 10
474576.9730000012
 20
621287.4809999987
 10
474582.5479999999
 20
621277.985
 10
474586.1
 20
621272.4470000001
 10
474602.1279999999
 20
621247.4570000003
 10
474611.6889999993
 20
621225.7120000012
 10
474635.5830000006
 20
621178.5249999985
 10
474654.7190000003
 20
621155.4320000001
 10
474677.1730000005
 20
621137.7569999993
 10
474697.2289999984
 20
621129.2969999984
 10
474817.2110247774
 20
621240.9316364958
 10
474805.2627836542
 20
621254.9535352285
 10
474771.0313163021
 20
621302.8748264846
 10
474730.7138034282
 20
621284.616542862
 10
474701.3891526218
 20
621273.6239105829
 10
474673.3727760168
 20
621270.1230918899
 10
474661.1142958822
 20
621272.9728909579
 10
474647.4448498871
 20
621288.6420700748
 10
474637.3284804425
 20
621298.5298262071
 10
474618.60858
 20
621302.07054
  0
LWPOLYLINE
  5
391
330
1F
100
AcDbEntity
  8
Parcele
100
AcDbPolyline
 90
        4
 70
     1
 43
0.0
 10
474853.2474102613
 20
621393.6270938436
 10
474865.6538724667
 20
621406.6775444564
 10
474793.9052616606
 20
621492.9207914348
 10
474778.6362851308
 20
621479.9186140719
  0
LWPOLYLINE
  5
392
330
1F
100
AcDbEntity
  8
Parcele
100
AcDbPolyline
 90
        9
 70
     1
 43
0.0
 10
475048.007288449
 20
621234.3263261718
 10
475065.4365631755
 20
621267.4759703199
 10
475060.036900964
 20
621281.7311739993
 10
475069.8671316128
 20
621304.2902984398
 10
475095.2374567687
 20
621338.524351199
 10
475113.7392057232
 20
621360.2443191494
 10
475129.2714540156
 20
621373.1569547904
 10
475111.868567644
 20
621393.0141140881
 10
475000.6502736243
 20
621279.0857794312
  0
LWPOLYLINE
  5
393
330
1F
100
AcDbEntity
  8
Parcele
100
AcDbPolyline
 90
        4
 70
     1
 43
0.0
 10
475141.2212673964
 20
621834.2822320277
 10
475177.6606004765
 20
621832.0692778868
 10
475286.7150017663
 20
621689.6258861524
 10
475251.2814860561
 20
621668.0274377258
  0
LWPOLYLINE
  5
394
330
1F
100
AcDbEntity
  8
Parcele
100
AcDbPolyline
 90
        4
 70
     1
 43
0.0
 10
475251.2814860561
 20
621668.0274377258
 10
475241.4384421043
 20
621661.9796275086
 10
475127.1611806394
 20
621833.5227645781
 10
475141.2212673971
 20
621834.2822320277
  0
LWPOLYLINE
  5
395
330
1F
100
AcDbEntity
  8
Parcele
100
AcDbPolyline
 90
        5
 70
     1
 43
0.0
 10
474903.3477734776
 20
621371.051177239
 10
474876.9254076302
 20
621357.2634884958
 10
475034.5984636834
 20
621208.9323606933
 10
475048.007288449
 20
621234.3263261718
 10
475000.6502736243
 20
621279.0857794312
  0
LWPOLYLINE
  5
396
330
1F
100
AcDbEntity
  8
Parcele
100
AcDbPolyline
 90
       22
 70
     1
 43
0.0
 10
474719.8099999986
 20
621019.9270000011
 10
474714.6230000001
 20
621037.3400000001
 10
474710.5529999998
 20
621048.2090000002
 10
474708.5210000014
 20
621064.368999999
 10
474701.459
 20
621088.2360000002
 10
474683.6209999993
 20
621124.6090000011
 10
474694.2239999995
 20
621120.2329999991
 10
474717.438000001
 20
621100.3940000014
 10
474727.7630000003
 20
621095.1360000001
 10
474743.2049999982
 20
621092.5920000001
 10
474763.4679999985
 20
621089.9789999984
 10
474813.7199999987
 20
621077.6099999995
 10
474838.1339999997
 20
621074.2950000017
 10
474909.3399999999
 20
621055.8819999993
 10
474932.4899999984
 20
621033.8729999997
 10
474978.677000001
 20
620982.0960000008
 10
474941.6436539378
 20
620936.1958319303
 10
474906.1143393709
 20
620897.5594175219
 10
474864.6527046674
 20
620855.6885780662
 10
474814.7929445589
 20
620889.9801565518
 10
474773.9881400796
 20
620923.1782531613
 10
474752.3558135083
 20
620960.9144721337
  0
LWPOLYLINE
  5
397
330
1F
100
AcDbEntity
  8
Parcele
100
AcDbPolyline
 90
       54
 70
     1
 43
0.0
 10
474561.0300000012
 20
621308.8359999993
 10
474563.8245980624
 20
621305.3327822096
 10
474583.2732532643
 20
621309.3890862768
 10
474600.7695213516
 20
621310.8168396139
 10
474615.6663887533
 20
621307.9261335911
 10
474637.3284804425
 20
621298.5298262071
 10
474647.4448498871
 20
621288.6420700748
 10
474661.1142958822
 20
621272.9728909579
 10
474673.3727760168
 20
621270.1230918899
 10
474701.3891526218
 20
621273.6239105829
 10
474730.7138034282
 20
621284.616542862
 10
474771.0313163021
 20
621302.8748264846
 10
474792.1920748761
 20
621312.4577373383
 10
474809.9745382801
 20
621327.1107064553
 10
474850.0962738584
 20
621343.3444630609
 10
474875.8318722646
 20
621356.6928611215
 10
474876.9254076302
 20
621357.2634884958
 10
474903.3477734776
 20
621371.051177239
 10
474929.9245868772
 20
621385.9712984577
 10
474941.1462215192
 20
621391.4910006338
 10
474946.5817859874
 20
621392.1209063929
 10
474969.8717242176
 20
621389.8418226214
 10
474996.2426827383
 20
621386.9930305403
 10
475021.5891902104
 20
621389.7524558939
 10
475067.0310314911
 20
621401.2929387723
 10
475092.0708618788
 20
621408.2724964207
 10
475106.7036290929
 20
621409.4334754777
 10
475134.4661969738
 20
621406.7787849972
 10
475167.1534051228
 20
621404.6498734455
 10
475171.6247867071
 20
621408.3671280325
 10
475134.7866287746
 20
621410.7663901415
 10
475106.7360644923
 20
621413.4486191878
 10
475091.36918026
 20
621412.2293945189
 10
475066.0015928663
 20
621405.1584784673
 10
475020.8769400643
 20
621393.6985492837
 10
474996.2410116509
 20
621391.0164833008
 10
474970.2813237155
 20
621393.8208467964
 10
474946.545933631
 20
621396.1435211555
 10
474940.0000973539
 20
621395.3849504507
 10
474928.047167109
 20
621389.5055382987
 10
474906.9872532149
 20
621377.4621684483
 10
474873.9857737697
 20
621360.2413741678
 10
474848.4215771749
 20
621346.9818778524
 10
474807.9048530803
 20
621330.5883039472
 10
474790.0581926827
 20
621315.882435716
 10
474729.185029234
 20
621288.3152718704
 10
474700.4259899465
 20
621277.5346646032
 10
474673.5841744862
 20
621274.1806145544
 10
474663.2788975336
 20
621276.5763412946
 10
474650.3545132711
 20
621291.3914619704
 10
474639.5969215092
 20
621301.9059498499
 10
474616.8573058866
 20
621311.7696518992
 10
474600.9919661887
 20
621314.8482879496
 10
474582.7000370921
 20
621313.3556060426
  0
LWPOLYLINE
  5
398
330
1F
100
AcDbEntity
  8
Parcele
100
AcDbPolyline
 90
       23
 70
     1
 43
0.0
 10
474697.2289999984
 20
621129.2969999984
 10
474722.4409999996
 20
621108.278999999
 10
474733.2320000007
 20
621103.5720000007
 10
474764.7769999988
 20
621099.6460000016
 10
474786.4899999984
 20
621094.686999999
 10
474814.2509999983
 20
621087.4090000018
 10
474838.982999999
 20
621083.6469999999
 10
474867.7890000008
 20
621078.3819999993
 10
474912.7039999999
 20
621065.4180000015
 10
474938.9880000018
 20
621040.1130000018
 10
474969.9450000004
 20
621005.2140000015
 10
474981.8062364489
 20
620991.2167997191
 10
474984.9989015847
 20
620995.6640319469
 10
474998.71369499
 20
621132.0623271362
 10
475034.5984636834
 20
621208.9323606933
 10
474876.9254076302
 20
621357.2634884958
 10
474875.8318722646
 20
621356.6928611215
 10
474850.0962738584
 20
621343.3444630609
 10
474809.9745382801
 20
621327.1107064553
 10
474792.1920748761
 20
621312.4577373383
 10
474771.0313163021
 20
621302.8748264846
 10
474805.2627836542
 20
621254.9535352285
 10
474817.2110247774
 20
621240.9316364958
  0
LWPOLYLINE
  5
399
330
1F
100
AcDbEntity
  8
Parcele
100
AcDbPolyline
 90
       24
 70
     1
 43
0.0
 10
474677.1730000005
 20
621137.7569999993
 10
474683.6209999993
 20
621124.6090000011
 10
474694.2239999995
 20
621120.2329999991
 10
474717.438000001
 20
621100.3940000014
 10
474727.7630000003
 20
621095.1360000001
 10
474743.2049999982
 20
621092.5920000001
 10
474763.4679999985
 20
621089.9789999984
 10
474813.7199999987
 20
621077.6099999995
 10
474838.1339999997
 20
621074.2950000017
 10
474909.3399999999
 20
621055.8819999993
 10
474932.4899999984
 20
621033.8729999997
 10
474978.677000001
 20
620982.0960000008
 10
474981.8062364489
 20
620991.2167997191
 10
474969.9450000004
 20
621005.2140000015
 10
474938.9880000018
 20
621040.1130000018
 10
474912.7039999999
 20
621065.4180000015
 10
474867.7890000008
 20
621078.3819999993
 10
474838.982999999
 20
621083.6469999999
 10
474814.2509999983
 20
621087.4090000018
 10
474786.4899999984
 20
621094.686999999
 10
474764.7769999988
 20
621099.6460000016
 10
474733.2320000007
 20
621103.5720000007
 10
474722.4409999996
 20
621108.278999999
 10
474697.2289999984
 20
621129.2969999984
  0
LWPOLYLINE
  5
39A
330
1F
100
AcDbEntity
  8
Parcele
100
AcDbPolyline
 90
       15
 70
     1
 43
0.0
 10
475000.6502736243
 20
621279.0857794312
 10
474903.3477734776
 20
621371.051177239
 10
474929.9245868772
 20
621385.9712984577
 10
474941.1462215192
 20
621391.4910006338
 10
474946.5817859874
 20
621392.1209063929
 10
474969.8717242176
 20
621389.8418226214
 10
474996.2426827383
 20
621386.9930305403
 10
475021.5891902104
 20
621389.7524558939
 10
475067.0310314911
 20
621401.2929387723
 10
475092.0708618788
 20
621408.2724964207
 10
475106.7036290929
 20
621409.4334754777
 10
475134.4661969738
 20
621406.7787849972
 10
475167.1534051228
 20
621404.6498734455
 10
475129.2714540156
 20
621373.1569547904
 10
475111.868567644
 20
621393.0141140881
  0
LWPOLYLINE
  5
39B
330
1F
100
AcDbEntity
  8
Parcele
100
AcDbPolyline
 90
       56
 70
     1
 43
0.0
 10
474729.185029234
 20
621288.3152718704
 10
474769.7849428866
 20
621316.9389231615
 10
474853.2474102613
 20
621393.6270938436
 10
474865.6538724667
 20
621406.6775444564
 10
474917.3164219146
 20
621442.4488489798
 10
475015.0821757721
 20
621525.4352972852
 10
474927.2776978679
 20
621612.3510814109
 10
474939.3293531318
 20
621640.3706754287
 10
474952.0853126337
 20
621668.3526724374
 10
474975.8257031836
 20
621674.0199391709
 10
474991.7566216979
 20
621681.8171014004
 10
475007.1431983834
 20
621682.1071693291
 10
475024.8521518217
 20
621687.9094204213
 10
475039.9483675132
 20
621708.7972119728
 10
475064.3346014149
 20
621735.1969635586
 10
475080.1020213056
 20
621758.2890482396
 10
475085.7477481686
 20
621774.6996542501
 10
475090.3179460929
 20
621799.3474949384
 10
475095.4827447914
 20
621811.910221559
 10
475108.704429441
 20
621825.1610755171
 10
475117.2286315972
 20
621830.8524756265
 10
475127.1611806394
 20
621833.5227645781
 10
475241.4384421043
 20
621661.9796275086
 10
475251.2814860561
 20
621668.0274377258
 10
475286.7150017663
 20
621689.6258861524
 10
475333.9919803992
 20
621621.9042402169
 10
475521.82250249
 20
621742.6095546952
 10
475554.8260000013
 20
621738.8649999985
 10
475571.0940000004
 20
621734.5080000013
 10
475586.4409999996
 20
621726.528000001
 10
475597.5729999989
 20
621718.8850000016
 10
475620.3090000004
 20
621694.1979999989
 10
475635.7899999989
 20
621684.7939999998
 10
475659.6900000015
 20
621673.0199999996
 10
475672.3960000015
 20
621664.7360000014
 10
475611.7851721732
 20
621650.1968203152
 10
475517.3985883707
 20
621588.7755178029
 10
475432.2698281966
 20
621515.9060909306
 10
475373.3023871003
 20
621488.6114821744
 10
475191.4564414856
 20
621424.8540478579
 10
475171.6247867071
 20
621408.3671280325
 10
475134.7866287746
 20
621410.7663901415
 10
475106.7360644923
 20
621413.4486191878
 10
475091.36918026
 20
621412.2293945189
 10
475066.0015928663
 20
621405.1584784673
 10
475020.8769400643
 20
621393.6985492837
 10
474996.2410116509
 20
621391.0164833008
 10
474970.2813237155
 20
621393.8208467964
 10
474946.545933631
 20
621396.1435211555
 10
474940.0000973539
 20
621395.3849504507
 10
474928.047167109
 20
621389.5055382987
 10
474906.9872532149
 20
621377.4621684483
 10
474873.9857737697
 20
621360.2413741678
 10
474848.4215771749
 20
621346.9818778524
 10
474807.9048530803
 20
621330.5883039472
 10
474790.0581926827
 20
621315.882435716
  0
LWPOLYLINE
  5
39C
330
1F
100
AcDbEntity
  8
Parcele
100
AcDbPolyline
 90
       10
 70
     0
 43
0.0
 10
474917.316
 20
621442.449
 10
475015.082
 20
621525.4350000001
 10
474927.278
 20
621612.351
 10
474920.487
 20
621600.373
 10
474883.9450000001
 20
621579.505
 10
474855.578
 20
621547.3730000001
 10
474837.826
 20
621531.728
 10
474793.9050000001
 20
621492.9210000001
 10
474865.654
 20
621406.6779999999
 10
474917.316
 20
621442.449
  0
LWPOLYLINE
  5
3A3
330
1F
100
AcDbEntity
  8
Terenuri
 62
     7
100
AcDbPolyline
 90
       18
 70
     0
 43
0.0
 10
475286.715
 20
621689.6260000001
 10
475333.9920000001
 20
621621.904
 10
475521.8229999999
 20
621742.61
 10
475506.9080000001
 20
621744.3020000001
 10
475489.9029999999
 20
621746.165
 10
475470.1970000001
 20
621743.87
 10
475444.368
 20
621737.69
 10
475402.531
 20
621725.3290000001
 10
475389.2979999998
 20
621724.1170000001
 10
475379.611
 20
621726.4200000001
 10
475366.8779999999
 20
621735.145
 10
475356.692
 20
621745.3240000001
 10
475289.464
 20
621803.191
 10
475276.614
 20
621809.0970000001
 10
475263.7410000001
 20
621811.9220000001
 10
475211.8610000001
 20
621821.322
 10
475177.661
 20
621832.069
 10
475286.715
 20
621689.6260000001
  0
LWPOLYLINE
  5
3A9
330
1F
100
AcDbEntity
  8
Parcele
 62
    38
100
AcDbPolyline
 90
       18
 70
     0
 43
0.0
 10
475286.715
 20
621689.6260000001
 10
475333.9920000001
 20
621621.904
 10
475521.8229999999
 20
621742.61
 10
475506.9080000001
 20
621744.3020000001
 10
475489.9029999999
 20
621746.165
 10
475470.1970000001
 20
621743.87
 10
475444.368
 20
621737.69
 10
475402.531
 20
621725.3290000001
 10
475389.2979999998
 20
621724.1170000001
 10
475379.611
 20
621726.4200000001
 10
475366.8779999999
 20
621735.145
 10
475356.692
 20
621745.3240000001
 10
475289.464
 20
621803.191
 10
475276.614
 20
621809.0970000001
 10
475263.7410000001
 20
621811.9220000001
 10
475211.8610000001
 20
621821.322
 10
475177.661
 20
621832.069
 10
475286.715
 20
621689.6260000001
  0
HATCH
  5
3B6
330
1F
100
AcDbEntity
  8
0
 62
     2
100
AcDbHatch
 10
0.0
 20
0.0
 30
0.0
210
0.0
220
0.0
230
1.0
  2
SOLID
 70
     1
 71
     0
 91
        1
 92
        1
 93
        1
 72
     2
 10
475065.1031107485
 20
621486.4439780487
 40
17.35209044493104
 50
0.0
 51
360.0
 73
     1
 97
        0
 75
     0
 76
     1
 98
        1
 10
-284953.1510309684
 20
-405412.3626986678
1001
ACAD
1010
0.0
1020
0.0
1030
0.0
  0
HATCH
  5
3B7
330
1F
100
AcDbEntity
  8
0
 62
     2
100
AcDbHatch
 10
0.0
 20
0.0
 30
0.0
210
0.0
220
0.0
230
1.0
  2
ANSI34
 70
     0
 71
     1
 91
        1
 92
        1
 93
        1
 72
     2
 10
475065.1031107485
 20
621486.4439780487
 40
17.37557855829331
 50
0.0
 51
360.0
 73
     1
 97
        1
330
3B8
 75
     0
 76
     1
 52
0.0
 41
1.560346611113375
 77
     0
 78
     4
 53
45.0
 43
-284968.1885785854
 44
-405406.6379586655
 45
-0.8274987522897882
 46
0.8274987522897882
 79
     0
 53
45.0
 43
-284967.9127456684
 44
-405406.6379586655
 45
-0.8274987522897882
 46
0.8274987522897882
 79
     0
 53
45.0
 43
-284967.6369127503
 44
-405406.6379586655
 45
-0.8274987522897882
 46
0.8274987522897882
 79
     0
 53
45.0
 43
-284967.3610798331
 44
-405406.6379586655
 45
-0.8274987522897882
 46
0.8274987522897882
 79
     0
 98
        1
 10
-284953.1510309684
 20
-405412.3626986678
1001
ACAD
1010
0.0
1020
0.0
1030
0.0
  0
CIRCLE
  5
3B8
102
{ACAD_REACTORS
330
3B7
102
}
330
1F
100
AcDbEntity
  8
0
 62
     7
100
AcDbCircle
 10
475065.1031107485
 20
621486.4439780487
 30
0.0
 40
17.37557855829331
  0
HATCH
  5
3B9
330
1F
100
AcDbEntity
  8
0
 62
     2
100
AcDbHatch
 10
0.0
 20
0.0
 30
0.0
210
0.0
220
0.0
230
1.0
  2
ANSI34
 70
     0
 71
     0
 91
        1
 92
        1
 93
        1
 72
     2
 10
475065.1031107485
 20
621486.4439780487
 40
9.696615545859341
 50
0.0
 51
360.0
 73
     1
 97
        0
 75
     0
 76
     1
 52
0.0
 41
1.560346611113375
 77
     0
 78
     4
 53
45.0
 43
-284968.1885785854
 44
-405406.6379586655
 45
-0.8274987522897882
 46
0.8274987522897882
 79
     0
 53
45.0
 43
-284967.9127456684
 44
-405406.6379586655
 45
-0.8274987522897882
 46
0.8274987522897882
 79
     0
 53
45.0
 43
-284967.6369127503
 44
-405406.6379586655
 45
-0.8274987522897882
 46
0.8274987522897882
 79
     0
 53
45.0
 43
-284967.3610798331
 44
-405406.6379586655
 45
-0.8274987522897882
 46
0.8274987522897882
 79
     0
 98
        1
 10
-284953.1510309684
 20
-405412.3626986678
1001
ACAD
1010
0.0
1020
0.0
1030
0.0
  0
TEXT
  5
3BA
330
1F
100
AcDbEntity
  8
0
100
AcDbText
 10
475046.2187317502
 20
621479.4115422918
 30
0.0
 40
15.60346611113376
  1
146
  7
TITLE
 72
     4
 11
475064.4032623443
 21
621487.1121614811
 31
0.0
100
AcDbText
  0
LWPOLYLINE
  5
3E8
330
1F
100
AcDbEntity
  8
Limita sector
 62
     3
370
    30
100
AcDbPolyline
 90
       33
 70
     1
 43
0.0
 10
474620.2704375741
 20
622112.4367249343
 10
474621.4613149029
 20
622111.5135805717
 10
474623.4564372246
 20
622110.1948921557
 10
474625.2316582167
 20
622109.7396296766
 10
474627.2896260236
 20
622110.0222069684
 10
474629.1747591011
 20
622110.0693059904
 10
474630.6563925297
 20
622110.1947406037
 10
474632.0388388849
 20
622109.9906504555
 10
474634.0497015121
 20
622109.2057285013
 10
474636.2019182567
 20
622108.6719620394
 10
474637.3487229774
 20
622109.1900176015
 10
474638.589776636
 20
622110.0063613556
 10
474639.4538345426
 20
622110.0377494772
 10
474640.9050675768
 20
622109.7069954597
 10
474643.2772242297
 20
622109.1889398977
 10
474645.6808229146
 20
622108.5609922309
 10
474648.8227499567
 20
622107.6661613333
 10
474650.8021705518
 20
622107.5405751676
 10
474649.9645779631
 20
622108.5257479504
 10
474648.8744846378
 20
622109.0120617692
 10
474647.453459102
 20
622109.1676720877
 10
474645.4290166034
 20
622109.9652233824
 10
474643.4240180115
 20
622110.6460627289
 10
474641.204904968
 20
622111.1712749173
 10
474639.9395850048
 20
622111.8131990546
 10
474633.698553811
 20
622115.0969118736
 10
474628.1688069687
 20
622117.2516626546
 10
474627.4398147732
 20
622115.1376120293
 10
474626.5008360981
 20
622113.8211463775
 10
474625.3095881615
 20
622112.8408064223
 10
474624.1043359822
 20
622112.4486738083
 10
474623.0672504512
 20
622112.3926500522
 10
474621.4695708475
 20
622112.5607044811
  0
LWPOLYLINE
  5
3E9
330
1F
100
AcDbEntity
  8
Limita sector
 62
     3
370
    30
100
AcDbPolyline
 90
      179
 70
     1
 43
0.0
 10
474807.9941448937
 20
622101.2196307651
 10
474816.8902538417
 20
622110.7712164938
 10
474825.7863854363
 20
622119.6594746977
 10
474829.769732448
 20
622125.3638860893
 10
474834.018630895
 20
622126.1598308075
 10
474838.1347385264
 20
622130.5376701852
 10
474844.7736527291
 20
622133.9868193218
 10
474851.0141944865
 20
622137.4360288489
 10
474857.9186827703
 20
622144.0690625421
 10
474867.0138005446
 20
622147.3350326713
 10
474878.6982674984
 20
622150.1209071244
 10
474883.4782310711
 20
622157.9478956384
 10
474889.1877001539
 20
622158.345867998
 10
474894.6316178018
 20
622159.9377951782
 10
474904.8555065709
 20
622161.3970447755
 10
474907.9094160118
 20
622161.5297223586
 10
474910.9632650621
 20
622165.7748766041
 10
474914.0171971494
 20
622167.7647836923
 10
474919.7266360371
 20
622167.4994511726
 10
474924.6394281686
 20
622164.5809293317
 10
474927.6933300604
 20
622166.9688314254
 10
474934.7305487689
 20
622168.1627786979
 10
474939.6433409005
 20
622166.4381814832
 10
474946.2822475543
 20
622166.9688314254
 10
474949.7344690498
 20
622166.3055039003
 10
474957.4559513016
 20
622170.0342710104
 10
474955.6225048276
 20
622173.0262545659
 10
474954.1319201912
 20
622177.0163954913
 10
474953.4883101127
 20
622181.756810938
 10
474952.6377963797
 20
622184.9226526851
 10
474950.1132448289
 20
622185.4159372972
 10
474949.7970402508
 20
622185.4762639476
 10
474949.2487052807
 20
622185.53105869
 10
474947.0972333332
 20
622185.847245985
 10
474945.8150636395
 20
622185.7600131915
 10
474943.849630941
 20
622184.6887291337
 10
474941.1944390526
 20
622184.016214651
 10
474940.2803382365
 20
622183.649368794
 10
474937.9922991233
 20
622183.4308312407
 10
474935.948312483
 20
622183.5464032595
 10
474935.0258868147
 20
622183.5612307808
 10
474932.2161000447
 20
622182.6972814321
 10
474930.4064139567
 20
622182.5344210575
 10
474928.1706242824
 20
622182.4660193635
 10
474924.9310098856
 20
622181.7136849442
 10
474923.3261694
 20
622181.2736436184
 10
474923.1944004967
 20
622181.2163173698
 10
474923.015662383
 20
622181.1885037427
 10
474921.1895024219
 20
622180.6877774351
 10
474919.7294358315
 20
622180.8245639802
 10
474916.854838082
 20
622181.3261146451
 10
474913.9802789218
 20
622180.9841567045
 10
474909.7261891418
 20
622180.2012849124
 10
474905.5055949163
 20
622179.0841695297
 10
474901.8553126724
 20
622178.7650009249
 10
474898.9807535124
 20
622178.1266468714
 10
474896.014930543
 20
622177.0779500269
 10
474892.1821592698
 20
622175.0261181654
 10
474887.4511437316
 20
622173.1220548495
 10
474886.2454276713
 20
622172.5029764315
 10
474885.5179224483
 20
622172.088619006
 10
474884.5063087184
 20
622171.5629210716
 10
474884.05251983
 20
622171.3770215225
 10
474883.3218133152
 20
622171.0018381372
 10
474880.1278501175
 20
622169.633955844
 10
474878.2342707857
 20
622169.7023406946
 10
474875.7367681501
 20
622170.0897762454
 10
474872.5427663631
 20
622170.9104955152
 10
474870.9869414771
 20
622170.871134951
 10
474868.878420318
 20
622170.1680551285
 10
474868.5848877881
 20
622170.0765587522
 10
474865.4932255872
 20
622168.699087773
 10
474864.1243842167
 20
622167.7415651146
 10
474861.1083179158
 20
622165.8428243634
 10
474858.4847052891
 20
622165.11327928
 10
474855.8838989674
 20
622164.5889224362
 10
474853.7394116917
 20
622163.2438294785
 10
474850.6823249131
 20
622161.4199920355
 10
474846.4109085157
 20
622158.1067460191
 10
474844.6314378877
 20
622156.6248665168
 10
474841.8937165572
 20
622155.8269365826
 10
474839.8439896249
 20
622155.6637922253
 10
474839.0964709971
 20
622155.5494353623
 10
474837.0343528458
 20
622154.8694139244
 10
474834.7301056674
 20
622153.2507478769
 10
474833.8475436375
 20
622152.8029923644
 10
474831.8446464928
 20
622151.6941963353
 10
474830.083135681
 20
622151.1743109715
 10
474827.7436892884
 20
622151.2867124973
 10
474826.9402645669
 20
622151.0828475437
 10
474825.0227465891
 20
622150.2644815046
 10
474825.0182988352
 20
622150.261964586
 10
474822.2391580365
 20
622148.494648885
 10
474818.2848303157
 20
622145.8806127017
 10
474817.0559139064
 20
622145.6077093901
 10
474816.9015845799
 20
622145.5549140852
 10
474815.2715737395
 20
622144.8796745646
 10
474813.120492818
 20
622143.5364570552
 10
474813.1365180095
 20
622143.5469660439
 10
474811.0589698888
 20
622143.0921959055
 10
474807.1246145427
 20
622142.1779616029
 10
474804.2890614839
 20
622141.007068344
 10
474804.0050821567
 20
622140.8684926103
 10
474799.960639585
 20
622138.5421097305
 10
474794.1181736306
 20
622136.0904959894
 10
474789.5909098523
 20
622133.9421842203
 10
474788.8925965844
 20
622133.833635566
 10
474788.8920906567
 20
622133.8333750095
 10
474788.887932639
 20
622133.8329105837
 10
474787.3146399515
 20
622133.5883515703
 10
474784.4313595986
 20
622133.9421842203
 10
474782.028632403
 20
622134.7509614066
 10
474780.8440485296
 20
622135.265644345
 10
474780.5238008536
 20
622135.3579292137
 10
474779.8218386063
 20
622135.4639897533
 10
474778.5298521725
 20
622135.5426421717
 10
474777.5673564106
 20
622135.5610018596
 10
474777.2180731003
 20
622135.6224995092
 10
474777.1297880996
 20
622135.6278740461
 10
474774.6645033301
 20
622135.9096704834
 10
474772.1105957327
 20
622136.3488592512
 10
474770.057626029
 20
622136.7196559562
 10
474769.5755601174
 20
622136.7516628379
 10
474767.9755179848
 20
622136.6071789428
 10
474765.5014766156
 20
622135.7010973366
 10
474762.8097280607
 20
622135.1706436632
 10
474759.6631423985
 20
622134.8625567907
 10
474758.9777867301
 20
622134.7775068561
 10
474754.7165965097
 20
622134.1189742187
 10
474750.8722484321
 20
622133.5376693003
 10
474747.0784524013
 20
622133.8409544291
 10
474744.4480866385
 20
622134.068426697
 10
474740.5784239481
 20
622134.2706167829
 10
474738.2009727757
 20
622134.1189742187
 10
474737.7649541554
 20
622134.2302881698
 10
474737.3810154376
 20
622134.2294601702
 10
474736.4180383672
 20
622134.5741508198
 10
474735.6198204395
 20
622134.7779329231
 10
474735.0805208161
 20
622134.8735231764
 10
474730.505134978
 20
622133.7759906198
 10
474723.5101837293
 20
622129.2507850709
 10
474716.9538935247
 20
622123.63866164
 10
474712.5025635468
 20
622121.5782481653
 10
474698.7753898038
 20
622116.7653315214
 10
474692.9086766664
 20
622111.8880769394
 10
474689.3097721911
 20
622106.0747839052
 10
474687.4363671956
 20
622101.000470565
 10
474684.2256391349
 20
622094.6630910385
 10
474683.1903377907
 20
622084.3666662819
 10
474679.9365323833
 20
622079.8342685344
 10
474676.7545556775
 20
622076.3016611857
 10
474673.4266761557
 20
622072.9688547762
 10
474677.4236940312
 20
622072.4363704769
 10
474682.7530738452
 20
622071.2383393075
 10
474686.0839183006
 20
622071.3714396232
 10
474691.0135744355
 20
622067.6441703113
 10
474695.2770646987
 20
622065.6474315653
 10
474697.6752935411
 20
622062.5857393192
 10
474702.4717134823
 20
622062.0532852153
 10
474702.2052335457
 20
622064.1831469233
 10
474707.5346435548
 20
622064.4493777496
 10
474712.197827302
 20
622064.3162774339
 10
474722.1903908632
 20
622058.9915929693
 10
474724.4553759631
 20
622053.4007154221
 10
474729.1186125517
 20
622053.001361634
 10
474728.9853688092
 20
622056.4623774733
 10
474735.2473415893
 20
622058.0597926261
 10
474740.8432013397
 20
622058.8584926538
 10
474746.3057947011
 20
622058.8584926538
 10
474749.1037321251
 20
622058.8584926538
 10
474760.6189023017
 20
622066.4431573686
 10
474769.4123703136
 20
622072.1671956216
 10
474780.6040294238
 20
622078.4236502346
 10
474784.0681100732
 20
622078.0243039946
 10
474788.0651279486
 20
622082.0177965844
 10
474791.6624749868
 20
622083.3489507155
 10
474793.2612640202
 20
622084.0145353299
 10
474796.0441038581
 20
622088.2188883503
 10
474800.8241051747
 20
622094.9845996264
  0
HATCH
  5
3EA
102
{ACAD_XDICTIONARY
360
3EB
102
}
330
1F
100
AcDbEntity
  8
0 @ 1
 62
     2
100
AcDbHatch
 10
0.0
 20
0.0
 30
0.0
210
0.0
220
0.0
230
1.0
  2
SOLID
 70
     1
 71
     0
 91
        2
 92
        7
 72
     0
 73
     1
 93
       78
 10
474734.50839558
 20
622135.2465347815
 10
474735.080520816
 20
622134.8735231764
 10
474730.5051349781
 20
622133.7759906198
 10
474723.51018373
 20
622129.2507850714
 10
474716.9538935247
 20
622123.63866164
 10
474712.5025635475
 20
622121.5782481658
 10
474698.7753898037
 20
622116.7653315216
 10
474692.9086766665
 20
622111.8880769395
 10
474689.3097721907
 20
622106.074783905
 10
474687.4363671952
 20
622101.0004705647
 10
474684.2256391349
 20
622094.6630910387
 10
474683.1903377907
 20
622084.3666662819
 10
474679.9365323834
 20
622079.8342685347
 10
474676.7545556775
 20
622076.3016611861
 10
474673.4266761556
 20
622072.9688547762
 10
474670.4955251845
 20
622075.6311630388
 10
474668.0972661439
 20
622077.2285781936
 10
474666.3652409197
 20
622078.2935090459
 10
474665.4326253067
 20
622081.4883016075
 10
474663.0014745124
 20
622085.536644801
 10
474663.1717769457
 20
622086.1982274801
 10
474662.7802210597
 20
622087.5126987785
 10
474662.4729851911
 20
622088.3331770739
 10
474662.3195937206
 20
622089.5530619984
 10
474661.7864979683
 20
622091.3547323901
 10
474661.1987448406
 20
622092.8523887153
 10
474659.580461921
 20
622096.151385082
 10
474657.2823212801
 20
622097.6048836842
 10
474656.8136551907
 20
622098.1704619657
 10
474655.0099466275
 20
622101.7325108486
 10
474654.2882065422
 20
622103.373995854
 10
474653.0782860239
 20
622105.260439188
 10
474652.8101529011
 20
622105.6784913382
 10
474652.3893077005
 20
622106.3953247069
 10
474651.9522257019
 20
622107.007691364
 10
474651.4822170099
 20
622107.8092167089
 10
474650.9967244163
 20
622109.0705971769
 10
474652.1549837122
 20
622110.9749131461
 10
474653.7880463518
 20
622112.3832873558
 10
474655.823788843
 20
622113.1433698118
 10
474658.2398293646
 20
622115.378880688
 10
474659.8327590814
 20
622116.6962491468
 10
474662.0754562516
 20
622117.9568716554
 10
474663.8976452861
 20
622119.0214014447
 10
474665.187185545
 20
622119.2735326829
 10
474666.0842721301
 20
622119.4696254011
 10
474668.6352981924
 20
622121.6547235033
 10
474671.9713087814
 20
622124.1199468402
 10
474675.0642836551
 20
622125.7001927297
 10
474678.0078019804
 20
622127.4650777147
 10
474680.5308507648
 20
622130.1263937689
 10
474681.8636391461
 20
622132.4160791114
 10
474683.3717600131
 20
622135.637353714
 10
474683.7004640837
 20
622136.1629401378
 10
474684.8619648847
 20
622136.1848367653
 10
474686.1987770956
 20
622136.6228366806
 10
474687.3383591466
 20
622138.1996127962
 10
474689.1792254281
 20
622140.1924753563
 10
474690.3694752936
 20
622141.9356489943
 10
474691.0488407745
 20
622144.5636148013
 10
474691.9692739147
 20
622146.8192874169
 10
474693.7882214464
 20
622147.6076670533
 10
474696.2207782089
 20
622147.7390636589
 10
474699.1354702945
 20
622147.0163739028
 10
474702.8172028525
 20
622146.1841841716
 10
474706.6742468275
 20
622145.0454079707
 10
474711.2487053803
 20
622140.956937137
 10
474712.0176367379
 20
622140.1885339634
 10
474712.97882023
 20
622139.5298834215
 10
474714.7089736706
 20
622139.4475689472
 10
474717.8671259521
 20
622140.380634757
 10
474719.8169685544
 20
622140.8471676626
 10
474721.9041120586
 20
622140.9020439786
 10
474723.8264790456
 20
622140.4629660749
 10
474727.9528766699
 20
622139.6823681635
 10
474729.3912946351
 20
622138.6955040259
 10
474731.4093246165
 20
622136.7432512863
 10
474733.9425995789
 20
622135.5203919849
 97
        0
 92
       24
 93
        4
 72
     1
 10
474693.8642631978
 20
622124.77429849
 11
474708.0712891187
 21
622124.77429849
 72
     1
 10
474708.0712891187
 20
622124.77429849
 11
474708.0712891187
 21
622132.4328933058
 72
     1
 10
474708.0712891187
 20
622132.4328933058
 11
474693.8642631978
 21
622132.4328933058
 72
     1
 10
474693.8642631978
 20
622132.4328933058
 11
474693.8642631978
 21
622124.77429849
 97
        0
 75
     1
 76
     1
 47
0.356245904879811
 98
        1
 10
474685.5309677965
 20
622122.7353831643
1001
GradientColor1ACI
1070
     5
1001
GradientColor2ACI
1070
     2
1001
ACAD
1010
0.0
1020
0.0
1030
0.0
1001
AcadNonAnnoHatchDecomposition
1000
AnnotativeData
1002
{
1070
     1
1070
     1
1002
}
  0
LWPOLYLINE
  5
3ED
330
1F
100
AcDbEntity
  8
Limita sector
 62
     3
370
    30
100
AcDbPolyline
 90
       79
 70
     1
 43
0.0
 10
474712.5025635468
 20
622121.5782481653
 10
474716.9538935247
 20
622123.63866164
 10
474723.5101837293
 20
622129.2507850709
 10
474730.505134978
 20
622133.7759906198
 10
474735.0805208161
 20
622134.8735231764
 10
474734.5083955792
 20
622135.2465347822
 10
474733.942599578
 20
622135.5203920381
 10
474731.4093246163
 20
622136.743251286
 10
474729.3912946358
 20
622138.6955040252
 10
474727.9528766699
 20
622139.6823681635
 10
474723.826479044
 20
622140.4629660749
 10
474721.9041120585
 20
622140.9020439786
 10
474719.8169685548
 20
622140.8471676625
 10
474717.8671259532
 20
622140.3806347573
 10
474714.7089736708
 20
622139.4475689472
 10
474712.97882023
 20
622139.5298834214
 10
474712.0176367375
 20
622140.1885339637
 10
474711.2487053789
 20
622140.9569371382
 10
474706.6742468274
 20
622145.0454079709
 10
474702.8172028541
 20
622146.1841841707
 10
474699.1354702913
 20
622147.0163739041
 10
474696.2207782088
 20
622147.7390636589
 10
474693.7882214465
 20
622147.6076670533
 10
474691.969273915
 20
622146.819287417
 10
474691.0488407743
 20
622144.5636148011
 10
474690.3694752936
 20
622141.9356489943
 10
474689.1792254282
 20
622140.1924753564
 10
474687.3383591466
 20
622138.1996127961
 10
474686.1987770957
 20
622136.6228366806
 10
474684.8619648845
 20
622136.184836765
 10
474683.7004640837
 20
622136.1629401378
 10
474683.371760013
 20
622135.6373537139
 10
474681.8636391462
 20
622132.4160791116
 10
474680.5308507648
 20
622130.1263937689
 10
474678.0078019803
 20
622127.4650777147
 10
474675.0642836544
 20
622125.7001927292
 10
474671.9713087818
 20
622124.1199468405
 10
474668.6352981922
 20
622121.6547235034
 10
474666.08427213
 20
622119.4696254009
 10
474665.187185545
 20
622119.2735326835
 10
474663.8976452859
 20
622119.0214014447
 10
474662.075456249
 20
622117.9568716543
 10
474659.8327590816
 20
622116.6962491468
 10
474658.2398293642
 20
622115.3788806877
 10
474655.8237888431
 20
622113.1433698121
 10
474653.7880463517
 20
622112.3832873558
 10
474652.154983712
 20
622110.9749131461
 10
474650.9967244163
 20
622109.0705971769
 10
474651.4822170099
 20
622107.8092167089
 10
474651.9522257022
 20
622107.0076913645
 10
474652.3893077005
 20
622106.3953247053
 10
474652.8101529021
 20
622105.6784913361
 10
474653.0782860239
 20
622105.260439188
 10
474654.2882065422
 20
622103.3739958547
 10
474655.0099466268
 20
622101.7325108491
 10
474656.7004438674
 20
622098.3940370357
 10
474656.8197221378
 20
622098.1631404772
 10
474657.2823212804
 20
622097.6048836838
 10
474659.580461921
 20
622096.151385082
 10
474661.1987448402
 20
622092.8523887166
 10
474661.7864979692
 20
622091.3547323887
 10
474662.3195937206
 20
622089.5530619987
 10
474662.4729851913
 20
622088.3331770741
 10
474662.7802210602
 20
622087.5126987793
 10
474663.1717769457
 20
622086.1982274798
 10
474663.0014745124
 20
622085.5366448009
 10
474665.4326253067
 20
622081.4883016076
 10
474666.3652409197
 20
622078.2935090458
 10
474668.0972661465
 20
622077.2285781915
 10
474670.4955251844
 20
622075.6311630388
 10
474673.4266761557
 20
622072.9688547762
 10
474676.7545556775
 20
622076.3016611857
 10
474679.9365323833
 20
622079.8342685344
 10
474683.1903377907
 20
622084.3666662819
 10
474684.2256391349
 20
622094.6630910385
 10
474687.4363671956
 20
622101.000470565
 10
474689.3097721911
 20
622106.0747839052
 10
474692.9086766664
 20
622111.8880769394
 10
474698.7753898038
 20
622116.7653315214
  0
LWPOLYLINE
  5
3EE
330
1F
100
AcDbEntity
  8
Limita sector
 62
     3
370
    30
100
AcDbPolyline
 90
       39
 70
     1
 43
0.0
 10
474652.6399725403
 20
622104.2407785733
 10
474649.6814490329
 20
622102.64315253
 10
474647.5521745226
 20
622101.3242788835
 10
474646.6018984309
 20
622101.0429308475
 10
474645.739619565
 20
622100.26919007
 10
474645.4052849093
 20
622099.6361401496
 10
474645.3172876836
 20
622095.4685081832
 10
474645.7045850823
 20
622091.1130694987
 10
474645.5638208368
 20
622087.2795593741
 10
474644.7011113794
 20
622082.2415300748
 10
474643.9757997258
 20
622078.2141848268
 10
474643.5817694433
 20
622075.5702407372
 10
474643.3284251169
 20
622071.6605672676
 10
474643.0478426207
 20
622067.486211821
 10
474643.0478426207
 20
622067.486211821
 10
474642.6481189414
 20
622064.6907353032
 10
474642.7813626838
 20
622059.8985426864
 10
474642.3023087407
 20
622055.6928384323
 10
474644.9131040412
 20
622057.1030963641
 10
474648.2439484966
 20
622057.1030963641
 10
474653.5733283105
 20
622050.8466417514
 10
474657.5703461861
 20
622049.2492265987
 10
474662.9771880514
 20
622048.6210555558
 10
474661.1454970806
 20
622055.5492425349
 10
474659.1196117541
 20
622061.216690941
 10
474659.7176331717
 20
622063.4570796558
 10
474663.1545922578
 20
622064.6933124882
 10
474664.5630925717
 20
622065.748740087
 10
474664.0762842572
 20
622068.05893865
 10
474661.6617579067
 20
622073.553881774
 10
474662.0596691339
 20
622086.2612909586
 10
474661.9803601582
 20
622088.4088209893
 10
474661.1761420322
 20
622091.0629567757
 10
474660.3350354845
 20
622093.5899911363
 10
474659.3559838877
 20
622094.7773668182
 10
474657.4328496508
 20
622096.1044347114
 10
474656.3838639118
 20
622097.3267338148
 10
474654.8772611228
 20
622100.5546414577
 10
474652.9191579294
 20
622103.8723119283
  0
LWPOLYLINE
  5
3EF
330
1F
100
AcDbEntity
  8
Limita sector
 62
     3
370
    30
100
AcDbPolyline
 90
      126
 70
     1
 43
0.0
 10
474642.8238758983
 20
622067.5309641785
 10
474640.3831338414
 20
622068.0186659246
 10
474636.2528571255
 20
622068.0186659246
 10
474633.588178542
 20
622067.3530813099
 10
474626.2602935646
 20
622064.8238733629
 10
474626.2602935646
 20
622064.8238733629
 10
474626.2602935646
 20
622064.8238733629
 10
474620.8900521349
 20
622063.0099814772
 10
474607.4749187368
 20
622061.2675766602
 10
474605.4626596729
 20
622059.6591704651
 10
474604.8902422597
 20
622044.4252762101
 10
474601.0414600291
 20
622045.4362633899
 10
474594.3251556022
 20
622045.5138272364
 10
474589.8542698042
 20
622045.1062905567
 10
474587.5047993728
 20
622045.0215115842
 10
474584.7115338935
 20
622044.9207185825
 10
474584.2548998652
 20
622042.1130205691
 10
474583.5893756409
 20
622040.4881051639
 10
474582.3935411703
 20
622038.4948841555
 10
474581.5368739623
 20
622037.4976735222
 10
474582.0713209474
 20
622035.0751526646
 10
474581.8035501673
 20
622033.448576525
 10
474578.2957695563
 20
622032.5737997626
 10
474576.3693100721
 20
622029.6888775989
 10
474575.8384865076
 20
622027.9084797071
 10
474573.5798574911
 20
622028.166384215
 10
474572.4336261382
 20
622029.0324723162
 10
474571.0976030354
 20
622030.5794011427
 10
474571.9516281659
 20
622031.5163271163
 10
474572.3708277303
 20
622036.3521970485
 10
474570.0983089354
 20
622041.9610256254
 10
474563.4020616511
 20
622049.5582590803
 10
474564.2830510698
 20
622053.4197836728
 10
474564.1318638464
 20
622056.2140372861
 10
474564.6609436398
 20
622058.7817516255
 10
474567.3065237776
 20
622060.9718225052
 10
474562.7771703126
 20
622061.7747187247
 10
474562.6201123946
 20
622061.8025596095
 10
474561.9647169899
 20
622062.1278688525
 10
474560.9497089762
 20
622062.6316738627
 10
474561.0068565023
 20
622067.4239086213
 10
474561.384366452
 20
622070.6612402786
 10
474561.2102883034
 20
622073.2112370038
 10
474561.0972977844
 20
622075.7195664902
 10
474561.376162181
 20
622078.0034239208
 10
474562.6341653109
 20
622080.8448360403
 10
474563.5329396544
 20
622084.3196603281
 10
474564.157408099
 20
622087.2963953372
 10
474565.4562867848
 20
622089.6727034345
 10
474567.0416228715
 20
622092.2174130541
 10
474569.0082803601
 20
622094.1340921996
 10
474570.1703958165
 20
622094.9007827328
 10
474570.5902946084
 20
622091.8313797546
 10
474570.9783093682
 20
622089.4100421896
 10
474571.4898637614
 20
622086.8378202766
 10
474572.1433077227
 20
622084.3968927837
 10
474572.7432253853
 20
622082.0846350321
 10
474573.025462162
 20
622081.4503893414
 10
474574.0485671776
 20
622079.8471562774
 10
474575.0028165711
 20
622078.233948254
 10
474577.0313893963
 20
622076.3664444308
 10
474577.4723836528
 20
622075.5736365799
 10
474578.2686599453
 20
622073.6093619333
 10
474578.7272951787
 20
622072.4994297617
 10
474578.8154925214
 20
622070.720017175
 10
474579.1170740105
 20
622070.7349651899
 10
474579.0262929047
 20
622072.5665061092
 10
474577.745260521
 20
622075.7042348033
 10
474577.2716467692
 20
622076.5556851239
 10
474575.2400560856
 20
622078.4259671869
 10
474574.3058543655
 20
622080.0052835797
 10
474573.2921504721
 20
622081.5937848325
 10
474573.0292362508
 20
622082.1846086581
 10
474571.7840932336
 20
622086.9063840003
 10
474571.2755632385
 20
622089.4633984912
 10
474570.8889904761
 20
622091.8757375279
 10
474570.4499310084
 20
622095.0852024341
 10
474571.5793698077
 20
622095.8303349687
 10
474572.9885909679
 20
622096.9379825175
 10
474574.8964754699
 20
622098.7725794998
 10
474576.2539996746
 20
622100.4682958384
 10
474577.7008346823
 20
622101.2893882245
 10
474580.5051938947
 20
622102.6638141315
 10
474582.8629990922
 20
622104.0025411021
 10
474584.9886347815
 20
622105.4126659461
 10
474586.494804569
 20
622105.9716742505
 10
474588.6918503214
 20
622106.2751152135
 10
474593.6932552861
 20
622107.4531969682
 10
474598.4158870924
 20
622108.636330459
 10
474601.0416246988
 20
622109.5823522851
 10
474603.2208082907
 20
622110.742584571
 10
474605.9179945397
 20
622111.5458274889
 10
474609.7226733242
 20
622112.5632640277
 10
474614.0164975389
 20
622113.4802046915
 10
474616.4434752072
 20
622113.7146894535
 10
474617.7377627943
 20
622113.5611765124
 10
474618.6420834717
 20
622112.9331258892
 10
474620.0248454697
 20
622111.5453821789
 10
474624.2454899842
 20
622109.0213730484
 10
474624.8496481292
 20
622108.8656541933
 10
474627.4684555173
 20
622109.1577852235
 10
474630.723117552
 20
622109.5665478103
 10
474632.7694632963
 20
622108.9242077309
 10
474635.3494237715
 20
622107.8380667819
 10
474636.3367736652
 20
622107.8134140745
 10
474639.3975557562
 20
622109.1200312725
 10
474641.2488351946
 20
622108.6023149347
 10
474644.6058177403
 20
622107.8134140745
 10
474648.8270554357
 20
622106.8910331391
 10
474650.0624936412
 20
622106.3094409331
 10
474651.2124731046
 20
622107.0445168519
 10
474651.9401063327
 20
622105.1644564
 10
474652.1279662808
 20
622104.9165203417
 10
474652.5015846802
 20
622104.423421765
 10
474649.5679215394
 20
622102.8392205159
 10
474647.4587529808
 20
622101.5328005054
 10
474646.4886522331
 20
622101.2455829878
 10
474645.5582614199
 20
622100.4107239419
 10
474645.1800030125
 20
622099.6945060726
 10
474645.0906116419
 20
622095.4608460957
 10
474645.477752125
 20
622091.1071720433
 10
474645.338062549
 20
622087.3029289982
 10
474644.4780608157
 20
622082.2807121962
 10
474643.7523145615
 20
622078.2509537977
 10
474643.3563894089
 20
622075.5942951264
 10
474643.1024529113
 20
622071.6754831201
  0
LWPOLYLINE
  5
3F0
330
1F
100
AcDbEntity
  8
Limita sector
 62
     3
370
    30
100
AcDbPolyline
 90
      336
 70
     1
 43
0.0
 10
474653.6890511242
 20
622224.9962425847
 10
474654.095245828
 20
622224.530588241
 10
474656.4173861441
 20
622224.9524924214
 10
474659.1617409076
 20
622225.4045386287
 10
474659.9759892593
 20
622225.871655849
 10
474660.6695937275
 20
622225.8867100237
 10
474662.3282709739
 20
622225.2839873603
 10
474663.7004483557
 20
622224.4703041872
 10
474664.7408746302
 20
622224.1086672216
 10
474666.2940178372
 20
622224.3346987446
 10
474667.5304806362
 20
622224.6511226703
 10
474668.9629799597
 20
622224.6360516567
 10
474669.7470477681
 20
622225.163452931
 10
474670.3502280407
 20
622226.2634180026
 10
474671.36732409
 20
622227.1094154489
 10
474672.8601062106
 20
622227.8025641928
 10
474674.6846394382
 20
622227.9683116621
 10
474676.2980654422
 20
622228.1943263463
 10
474676.5996751507
 20
622227.7573511526
 10
474676.9313871133
 20
622225.8587739214
 10
474678.3940278354
 20
622224.653311756
 10
474679.8566685573
 20
622223.3273151612
 10
474680.5503121702
 20
622222.4081685727
 10
474681.1856693644
 20
622220.1400905063
 10
474681.3364546464
 20
622218.346976691
 10
474682.0451298138
 20
622216.7798943988
 10
474683.6917896454
 20
622214.0441097426
 10
474686.2401078845
 20
622211.0606047754
 10
474688.1435567739
 20
622208.7330172549
 10
474690.9331236351
 20
622206.9700454665
 10
474692.9536933873
 20
622206.0659530521
 10
474696.3313306773
 20
622206.2166295081
 10
474697.6130447188
 20
622206.2166295081
 10
474698.0805104087
 20
622206.1262202664
 10
474701.0208625519
 20
622204.5742089881
 10
474701.7966708344
 20
622203.8451929162
 10
474701.8871341746
 20
622203.498626964
 10
474704.6013083949
 20
622201.539765679
 10
474705.1743081242
 20
622201.0425232707
 10
474707.2401291188
 20
622200.274036299
 10
474709.0797330457
 20
622197.923412861
 10
474709.9582178065
 20
622196.2408647151
 10
474711.7073583932
 20
622191.630010241
 10
474712.8846344462
 20
622189.0140696101
 10
474713.4576341755
 20
622187.7182150421
 10
474713.7523115468
 20
622186.5659017514
 10
474715.0378737456
 20
622185.2411899529
 10
474716.5852499419
 20
622184.0564411651
 10
474717.5652567174
 20
622180.2446440354
 10
474718.1842220064
 20
622175.9177314968
 10
474721.0505353883
 20
622172.7495240953
 10
474721.0676849678
 20
622171.1008216527
 10
474716.1160737344
 20
622171.0493156626
 10
474707.3475901091
 20
622166.4133394297
 10
474701.2612400343
 20
622163.4772204548
 10
474692.3947003511
 20
622156.7682299151
 10
474693.7285355284
 20
622156.6456760303
 10
474695.0664835734
 20
622156.8886716722
 10
474697.4221598706
 20
622156.9977517289
 10
474700.2245737287
 20
622157.0439503413
 10
474703.1697352595
 20
622157.1331770725
 10
474703.7155129827
 20
622157.0021300288
 10
474704.6178201922
 20
622156.7291656793
 10
474705.356167621
 20
622156.3581425106
 10
474706.1197280179
 20
622155.4134110853
 10
474709.8236942062
 20
622152.1906804412
 10
474711.3779151663
 20
622150.5545550785
 10
474712.0600995764
 20
622150.1882121614
 10
474714.3194532768
 20
622147.7325143591
 10
474716.2672682962
 20
622146.2083375943
 10
474718.105927771
 20
622145.6476132614
 10
474720.9904724954
 20
622144.9369699024
 10
474722.4152316582
 20
622143.3261329958
 10
474724.1006506381
 20
622142.1434636198
 10
474725.1794486246
 20
622141.7118236446
 10
474726.5409489031
 20
622141.2447798308
 10
474727.6848174838
 20
622140.8532994336
 10
474728.8982859347
 20
622140.0285183268
 10
474729.7250297277
 20
622139.3662627297
 10
474731.5458740515
 20
622137.7152662455
 10
474732.6036109058
 20
622136.9603114722
 10
474734.4101125231
 20
622136.0504554699
 10
474736.2319381898
 20
622135.4043542898
 10
474736.2319381898
 20
622135.4043542898
 10
474738.6660464446
 20
622134.9502943997
 10
474741.6818646767
 20
622135.0816433954
 10
474744.378444459
 20
622134.9295352196
 10
474750.1063929866
 20
622134.6050126145
 10
474752.0050653647
 20
622134.6833690845
 10
474754.8043842177
 20
622134.9509737911
 10
474758.486383419
 20
622135.4356817801
 10
474762.6835122441
 20
622135.9068774299
 10
474765.2448931465
 20
622136.3584462181
 10
474767.7818914481
 20
622137.3024982522
 10
474769.5794100018
 20
622137.4925768562
 10
474772.2513052315
 20
622137.0878860716
 10
474774.7598445839
 20
622136.5179522113
 10
474777.2045211489
 20
622136.2029410855
 10
474779.8919668919
 20
622135.9901406151
 10
474780.6694170676
 20
622135.8892887426
 10
474781.2655452389
 20
622135.8662649244
 10
474783.2255893029
 20
622135.0531844461
 10
474784.4938619897
 20
622134.6530229372
 10
474785.9266228731
 20
622134.4005913043
 10
474787.3942591793
 20
622134.2801880583
 10
474788.5734561106
 20
622134.5025000079
 10
474790.7766467921
 20
622135.5182655741
 10
474792.147356598
 20
622136.1061655612
 10
474794.3571147295
 20
622136.9997916587
 10
474796.5356208584
 20
622137.8509180528
 10
474798.4820770951
 20
622138.8470567576
 10
474801.2062099713
 20
622140.2475088074
 10
474802.1169718289
 20
622140.7504848749
 10
474803.988015625
 20
622141.6287869235
 10
474806.8607087446
 20
622142.887850083
 10
474808.6747591546
 20
622143.3567056069
 10
474810.9655913213
 20
622143.7016854403
 10
474812.8693968783
 20
622144.2464063325
 10
474814.9332368439
 20
622145.4766331033
 10
474816.6809333649
 20
622146.1520235997
 10
474817.9600008255
 20
622146.73909322
 10
474819.159051082
 20
622147.3000440167
 10
474821.7470792233
 20
622148.8541894888
 10
474824.2501079569
 20
622150.501260601
 10
474825.756771522
 20
622151.5751518722
 10
474827.7095687448
 20
622151.8720458949
 10
474829.9442378924
 20
622151.8976363025
 10
474831.6218816158
 20
622152.3606792562
 10
474833.6640565459
 20
622153.4177367193
 10
474834.6395870461
 20
622154.1611418391
 10
474835.7950807679
 20
622155.2048379388
 10
474836.1658774728
 20
622155.3774788312
 10
474836.8676132561
 20
622155.6740709024
 10
474838.2777277607
 20
622156.0846497457
 10
474840.0930614656
 20
622156.2730676151
 10
474840.0930614656
 20
622156.2730676151
 10
474841.2651625316
 20
622156.5923060647
 10
474843.846774199
 20
622157.4974063276
 10
474844.4538481201
 20
622157.8672216897
 10
474845.8460719855
 20
622158.871135651
 10
474847.5132228867
 20
622160.0425573255
 10
474848.3184526203
 20
622160.7025482843
 10
474850.0583738843
 20
622162.6128458035
 10
474850.755806856
 20
622162.8760722101
 10
474852.7446873086
 20
622163.9810645077
 10
474855.2431112786
 20
622165.3352424572
 10
474859.4421273021
 20
622166.2257735498
 10
474861.6250117311
 20
622167.2258376269
 10
474864.5397516267
 20
622169.3330831514
 10
474866.0475475108
 20
622170.0351208865
 10
474868.7118184597
 20
622170.715569074
 10
474870.9701908171
 20
622171.4708257988
 10
474872.3723036014
 20
622171.6770588193
 10
474873.2610984714
 20
622171.4699954316
 10
474875.603941821
 20
622170.9827963411
 10
474877.3463541868
 20
622170.6520082385
 10
474878.6848306473
 20
622170.4738567273
 10
474879.6341668363
 20
622170.4899356559
 10
474880.3639086411
 20
622170.6531405573
 10
474882.2888508184
 20
622171.29841137
 10
474884.2109244542
 20
622172.1228905253
 10
474885.1703005377
 20
622172.8098306749
 10
474888.5702013501
 20
622174.6707590886
 10
474892.1189643573
 20
622176.1526626131
 10
474895.1374246668
 20
622177.6727630299
 10
474896.8852721636
 20
622178.5817886647
 10
474898.041143325
 20
622178.8746063396
 10
474899.5930996472
 20
622179.3668631213
 10
474902.3644124788
 20
622179.8356431573
 10
474905.4406210539
 20
622180.091622723
 10
474908.8408238177
 20
622180.8596369077
 10
474912.0996376915
 20
622181.5375185057
 10
474915.1692033287
 20
622182.0399661579
 10
474918.664294419
 20
622182.0438915304
 10
474920.7055634938
 20
622181.559485493
 10
474922.9780520937
 20
622181.7841375682
 10
474925.5048595247
 20
622182.8550848099
 10
474928.5276981342
 20
622183.4558177451
 10
474930.5684387937
 20
622183.6298929083
 10
474932.7300356267
 20
622184.1078824717
 10
474934.1915574107
 20
622184.2412696414
 10
474936.0867573439
 20
622184.5134036236
 10
474938.0121524485
 20
622184.2776548229
 10
474940.0547048181
 20
622184.3523123842
 10
474942.4803584251
 20
622185.3143305454
 10
474944.4973958751
 20
622186.1152574668
 10
474946.2975565063
 20
622186.5418397507
 10
474947.3535571381
 20
622186.5001704141
 10
474950.2619560479
 20
622186.0417322244
 10
474951.7787349957
 20
622185.8339894454
 10
474952.3195771483
 20
622186.1310436377
 10
474952.1851620027
 20
622186.7022515987
 10
474952.1083907793
 20
622188.610208992
 10
474952.2484208869
 20
622190.8686568372
 10
474952.9907691758
 20
622193.1995730938
 10
474954.1385631288
 20
622195.4283541832
 10
474955.2668057084
 20
622197.4551295759
 10
474956.6144916961
 20
622200.1670334076
 10
474957.6117627198
 20
622201.5696746074
 10
474960.4367474685
 20
622204.3205302104
 10
474960.7642141024
 20
622204.9867866672
 10
474960.8693687869
 20
622205.3510914103
 10
474961.1600727996
 20
622206.1871202189
 10
474961.1350862951
 20
622207.5231810655
 10
474961.0990785533
 20
622208.4827836126
 10
474961.0587679994
 20
622208.6342878853
 10
474960.9708245627
 20
622208.8926830646
 10
474960.3539372109
 20
622210.5484352885
 10
474959.8297490353
 20
622211.2136349145
 10
474959.6607315634
 20
622211.8668319599
 10
474958.6146953379
 20
622214.40315087
 10
474957.9066940564
 20
622215.3708306258
 10
474955.2635597275
 20
622217.7483229344
 10
474954.4023934389
 20
622218.639986346
 10
474953.3977245985
 20
622220.9775455401
 10
474952.3892813614
 20
622223.0191165667
 10
474951.6356098832
 20
622224.3809187975
 10
474950.6769131911
 20
622226.1632642774
 10
474949.5788657829
 20
622228.2261228997
 10
474949.1151434379
 20
622229.1922928968
 10
474947.3512925003
 20
622232.1389641864
 10
474946.0459552405
 20
622234.2488517883
 10
474944.4855442702
 20
622237.0613810286
 10
474943.7686354132
 20
622238.506899372
 10
474942.505873345
 20
622240.7745567444
 10
474942.0468312517
 20
622242.6209914759
 10
474942.3163231564
 20
622244.2038223611
 10
474942.8875403116
 20
622246.3016318944
 10
474942.9326066048
 20
622247.9132991683
 10
474942.2498182915
 20
622250.6710996603
 10
474941.8081384218
 20
622252.6032131908
 10
474941.9637945304
 20
622255.9886958087
 10
474941.7528057702
 20
622258.6772738707
 10
474941.7137785111
 20
622262.3150371457
 10
474941.5708798625
 20
622263.6489088426
 10
474940.6755175423
 20
622265.9970363467
 10
474940.4695864734
 20
622267.5326117887
 10
474940.9582953226
 20
622268.4702473488
 10
474941.3649228887
 20
622268.6363482559
 10
474940.7092061204
 20
622269.6140063682
 10
474939.995124281
 20
622269.8994255964
 10
474937.5182598924
 20
622269.2806518413
 10
474933.8388366033
 20
622268.5965878482
 10
474931.0551498786
 20
622268.8384764282
 10
474930.5975153504
 20
622268.4495812314
 10
474930.0396501345
 20
622267.5637825759
 10
474929.7968968689
 20
622265.9870083656
 10
474929.3113920513
 20
622264.6831370227
 10
474928.1883454691
 20
622263.4451796207
 10
474927.368868131
 20
622261.9278122131
 10
474926.9350278928
 20
622259.567462421
 10
474926.0191417079
 20
622257.4238794013
 10
474925.3469752503
 20
622253.5980099612
 10
474924.9545455004
 20
622252.5750055888
 10
474924.0673138792
 20
622251.6884016031
 10
474923.4018895206
 20
622250.8017976174
 10
474922.2246011277
 20
622249.6594422622
 10
474920.9920273512
 20
622247.9629179055
 10
474919.3199362301
 20
622245.848708231
 10
474918.5521388934
 20
622245.3372058605
 10
474917.7331559244
 20
622244.6211025421
 10
474916.3852459012
 20
622243.5810480295
 10
474915.2079566514
 20
622242.9160951325
 10
474913.5188033674
 20
622242.3875426217
 10
474912.2872880123
 20
622241.9062207476
 10
474917.8311091719
 20
622236.3318839278
 10
474919.0137908906
 20
622233.1550809187
 10
474919.0137908906
 20
622233.1550809187
 10
474919.0137908906
 20
622233.1550809187
 10
474919.0137908906
 20
622233.1550809187
 10
474919.0137908906
 20
622233.1550809187
 10
474919.0137908906
 20
622233.1550809187
 10
474917.4954081537
 20
622229.4380133166
 10
474917.4954081537
 20
622229.4380133166
 10
474912.2115035579
 20
622224.296777044
 10
474904.980856064
 20
622212.4858343111
 10
474901.5723754072
 20
622202.3063386519
 10
474891.4458300273
 20
622199.0804316986
 10
474881.6585362749
 20
622191.8814097173
 10
474868.3495792142
 20
622188.0251771356
 10
474868.3495792142
 20
622188.0251771356
 10
474854.1485893877
 20
622184.5535082724
 10
474854.1485893877
 20
622184.5535082724
 10
474836.3746180804
 20
622181.6601872157
 10
474836.3746180804
 20
622181.6601872157
 10
474836.3746180804
 20
622181.6601872157
 10
474817.0701359644
 20
622179.5180917426
 10
474806.5520445075
 20
622182.6031636028
 10
474800.7075069671
 20
622190.8254640672
 10
474790.3655263286
 20
622200.1649524724
 10
474785.6711013699
 20
622210.4158685049
 10
474786.640422026
 20
622215.5368695643
 10
474784.051686809
 20
622218.8608134477
 10
474780.9452156563
 20
622219.8949299392
 10
474780.9452156563
 20
622219.8949299392
 10
474772.2534943815
 20
622217.5325784346
 10
474768.8598590673
 20
622215.4068383677
 10
474765.328911211
 20
622213.3735710131
 10
474761.0956991559
 20
622212.5526397906
 10
474758.2297999499
 20
622211.1353539329
 10
474756.8785660295
 20
622209.6437124655
 10
474756.1371990835
 20
622209.423363202
 10
474750.4563550232
 20
622209.6168387628
 10
474747.0338078325
 20
622209.1030679211
 10
474744.8676817238
 20
622209.2825782155
 10
474742.1902003873
 20
622209.1531164178
 10
474737.9596304097
 20
622207.8876367842
 10
474734.5610128921
 20
622208.1663382163
 10
474731.2809869104
 20
622209.7431300671
 10
474727.8732353534
 20
622209.7202572246
 10
474722.7337907165
 20
622210.5650426328
 10
474718.4147488868
 20
622211.7120062185
 10
474714.8841029821
 20
622213.7657308017
 10
474712.7696861046
 20
622214.4373469017
 10
474711.9101805505
 20
622214.847774769
 10
474711.2861218453
 20
622215.855387639
 10
474711.1989332879
 20
622217.234476605
 10
474709.9922587508
 20
622218.2333328749
 10
474707.8764076024
 20
622218.9595267472
 10
474704.8865572177
 20
622220.383229079
 10
474702.1224157394
 20
622222.1433811082
 10
474700.7146413603
 20
622223.099209259
 10
474697.4744730048
 20
622223.6415145374
 10
474694.6922899117
 20
622224.8537751815
 10
474691.263250759
 20
622226.5641806657
 10
474690.4873103417
 20
622226.7541082937
 10
474686.8697778316
 20
622226.5983766972
 10
474682.2565595443
 20
622227.0646656319
 10
474680.0701271828
 20
622228.9686976525
 10
474679.309737279
 20
622229.3946005454
 10
474677.7395883658
 20
622229.8203524623
 10
474670.7962841891
 20
622229.1380170763
 10
474665.2407500902
 20
622227.9461381729
 10
474660.3684572323
 20
622226.582750696
 10
474655.3424709519
 20
622225.5951421272
 10
474653.9248076544
 20
622225.150971156
  0
LWPOLYLINE
  5
3F1
330
1F
100
AcDbEntity
  8
Limita sector
 62
     3
370
    30
100
AcDbPolyline
 90
      156
 70
     1
 43
0.0
 10
474650.4282611339
 20
622109.7986171178
 10
474651.9568840045
 20
622111.8862976793
 10
474652.9250285401
 20
622112.7264519506
 10
474655.4472967843
 20
622113.999438992
 10
474656.8740320389
 20
622115.0432624337
 10
474658.7083949151
 20
622116.8763523225
 10
474660.8994223154
 20
622118.3020870317
 10
474664.4662604519
 20
622119.8551086579
 10
474665.256053436
 20
622119.8805694089
 10
474668.0330600091
 20
622121.8664069658
 10
474669.2065615229
 20
622123.0060786851
 10
474672.7716250171
 20
622125.3745010742
 10
474675.4205487111
 20
622126.5885680306
 10
474677.7152769485
 20
622127.9297871906
 10
474680.3841074998
 20
622130.93509882
 10
474681.6019364919
 20
622133.8906845243
 10
474682.9562586245
 20
622136.1595877079
 10
474684.7089493755
 20
622137.2542484561
 10
474687.4574459345
 20
622139.0852839721
 10
474689.134174279
 20
622141.0868324291
 10
474690.3889235468
 20
622143.4950625007
 10
474690.6677738635
 20
622145.0673817594
 10
474691.2055290612
 20
622146.5799894946
 10
474692.0220959965
 20
622147.3760926251
 10
474693.6751753032
 20
622148.1522919146
 10
474695.5871980698
 20
622148.3513303264
 10
474698.0369374548
 20
622147.9333665003
 10
474700.8850068788
 20
622147.0576480052
 10
474705.3861941886
 20
622146.0028117782
 10
474707.169748284
 20
622145.1840431907
 10
474709.2012507729
 20
622143.3529908354
 10
474711.5514172928
 20
622141.3428207487
 10
474713.3240149009
 20
622139.9297322196
 10
474715.3156650962
 20
622140.0690422687
 10
474717.7255907668
 20
622140.964664605
 10
474720.991935666
 20
622141.3428207487
 10
474723.2424907418
 20
622141.1437991758
 10
474723.650969048
 20
622141.3646546614
 10
474723.1156841468
 20
622141.7800647321
 10
474721.9943864567
 20
622142.7425358204
 10
474720.3802280814
 20
622143.8827809809
 10
474719.4343643371
 20
622144.4016850013
 10
474717.843003316
 20
622145.0107970964
 10
474716.0482778156
 20
622145.3886896668
 10
474713.8781508467
 20
622147.20334398
 10
474710.993983562
 20
622150.1819466634
 10
474709.4600688547
 20
622151.7924061304
 10
474705.7484028974
 20
622154.8897513251
 10
474704.8314510299
 20
622155.5741248851
 10
474704.2376629842
 20
622155.9073286015
 10
474703.5546482071
 20
622156.3419126058
 10
474703.1279904351
 20
622156.4610325571
 10
474700.2497112088
 20
622156.4079645435
 10
474697.4017781298
 20
622156.3606336122
 10
474695.1534456669
 20
622156.2182633791
 10
474693.88517298
 20
622156.0253917218
 10
474691.0659253138
 20
622155.0054743196
 10
474689.6084043901
 20
622154.7045039486
 10
474686.4943008751
 20
622154.6113518449
 10
474683.5707288918
 20
622154.3148352616
 10
474680.8059080221
 20
622154.2498401554
 10
474679.250479255
 20
622154.0433806707
 10
474678.2537827881
 20
622154.22990187
 10
474678.356969542
 20
622153.5657971499
 10
474678.3473972171
 20
622152.3820049752
 10
474674.5170298907
 20
622150.4477523296
 10
474671.753716619
 20
622150.8419885996
 10
474669.6722574646
 20
622149.5876029916
 10
474659.0855332191
 20
622151.2720632686
 10
474656.9984460975
 20
622151.2307363554
 10
474654.1992360235
 20
622150.3705870174
 10
474653.0867313544
 20
622149.2595550067
 10
474652.8714060786
 20
622146.6074301936
 10
474650.5746401611
 20
622145.1380072508
 10
474645.370992275
 20
622145.3172061863
 10
474641.7722406294
 20
622143.6155101716
 10
474636.7480397299
 20
622137.6661416033
 10
474634.7383556675
 20
622137.7019800023
 10
474631.7955954093
 20
622144.4039827114
 10
474630.537966947
 20
622150.7969980515
 10
474628.9230366339
 20
622156.9972492928
 10
474629.0969789423
 20
622158.4875814858
 10
474627.8963434393
 20
622160.5391924072
 10
474626.1805028242
 20
622162.7564993315
 10
474624.5970680357
 20
622164.8263028431
 10
474622.9862311291
 20
622166.9333219041
 10
474620.8426004232
 20
622169.5790228224
 10
474619.2638458861
 20
622171.285729398
 10
474619.2638458861
 20
622171.285729398
 10
474619.2638458861
 20
622171.285729398
 10
474619.2638458861
 20
622171.285729398
 10
474619.2638458861
 20
622171.285729398
 10
474618.8608158358
 20
622172.3279157393
 10
474618.837414578
 20
622172.8362514498
 10
474618.4184565747
 20
622176.2584966889
 10
474617.6647850965
 20
622177.7213017677
 10
474616.4624133711
 20
622178.9773454103
 10
474615.4529887911
 20
622179.6143880389
 10
474614.5345271647
 20
622179.9903179228
 10
474611.3224403186
 20
622180.5455316371
 10
474608.0163710015
 20
622180.4825747049
 10
474604.1622593233
 20
622179.9701626462
 10
474602.83336983
 20
622179.720901506
 10
474601.8727859396
 20
622179.4872663673
 10
474601.2771106956
 20
622179.4283102951
 10
474600.1529444643
 20
622179.2758246795
 10
474597.6062082199
 20
622178.9542461042
 10
474597.0384635096
 20
622179.0520029715
 10
474596.0482883512
 20
622179.1370023789
 10
474594.6611221769
 20
622179.3039061891
 10
474592.1601316175
 20
622179.7247513903
 10
474590.6801152909
 20
622179.9203406132
 10
474589.1123065034
 20
622180.1107211691
 10
474588.8790488044
 20
622180.0825641715
 10
474587.5207190188
 20
622179.9178495118
 10
474586.4099910398
 20
622179.7058796757
 10
474587.0015885345
 20
622178.6160601843
 10
474587.7292921654
 20
622176.1126540112
 10
474588.4437854087
 20
622173.5500653018
 10
474589.2045527521
 20
622170.5411164714
 10
474590.2939945366
 20
622165.5032030982
 10
474590.929300943
 20
622161.7217108072
 10
474591.6979190311
 20
622157.9741125961
 10
474592.1660196757
 20
622155.1171964539
 10
474592.8041191354
 20
622153.4219640432
 10
474593.9837689944
 20
622151.2923740919
 10
474595.2381519025
 20
622148.9179013004
 10
474596.437126671
 20
622147.3620950938
 10
474597.3080309021
 20
622146.10537206
 10
474598.7986910265
 20
622143.7869113116
 10
474599.9983451866
 20
622141.2957341827
 10
474601.3599209531
 20
622138.3125267357
 10
474603.5046084901
 20
622135.4051846571
 10
474605.2994849664
 20
622133.35780106
 10
474606.0013717257
 20
622132.3874037388
 10
474608.8817646139
 20
622129.5808380446
 10
474610.8489045432
 20
622127.9955915459
 10
474613.842529324
 20
622125.7234048978
 10
474616.399229975
 20
622124.1090955464
 10
474618.3998110564
 20
622122.9593389072
 10
474621.2689562432
 20
622121.3694876449
 10
474623.1221848883
 20
622120.462198232
 10
474624.857576877
 20
622119.6593841121
 10
474626.8023723793
 20
622118.7811575518
 10
474628.517458115
 20
622118.0116336087
 10
474631.7249401976
 20
622116.7508342266
 10
474633.1926519917
 20
622116.1268510094
 10
474635.3246575568
 20
622115.0063081987
 10
474637.2823614946
 20
622114.0105469337
 10
474639.9599183191
 20
622112.4710461197
 10
474641.6229173842
 20
622111.7636487414
 10
474644.6408492782
 20
622111.1340794177
 10
474646.878688919
 20
622110.4500832975
 10
474647.2169503269
 20
622110.1711554015
 10
474649.763460107
 20
622109.9334439147
 10
474650.4282611339
 20
622109.7986171178
  0
TEXT
  5
3F2
102
{ACAD_XDICTIONARY
360
3F3
102
}
330
1F
100
AcDbEntity
  8
Numar_sector_cadastral @ 1
 62
     1
100
AcDbText
 10
474774.0182874606
 20
622167.5811289698
 30
0.0
 40
5.0
  1
72
  7
Arial
100
AcDbText
1001
AcadAnnotative
1000
AnnotativeData
1002
{
1070
     1
1070
     0
1002
}
  0
TEXT
  5
3F5
102
{ACAD_XDICTIONARY
360
3F6
102
}
330
1F
100
AcDbEntity
  8
Numar_sector_cadastral @ 1
 62
     1
100
AcDbText
 10
474666.957470283
 20
622137.9152990138
 30
0.0
 40
5.0
  1
145
  7
Arial
100
AcDbText
1001
AcadAnnotative
1000
AnnotativeData
1002
{
1070
     1
1070
     0
1002
}
  0
TEXT
  5
3F8
102
{ACAD_XDICTIONARY
360
3F9
102
}
330
1F
100
AcDbEntity
  8
Numar_sector_cadastral @ 1
 62
     1
100
AcDbText
 10
474695.1406956671
 20
622126.1359969894
 30
0.0
 40
5.0
  1
146
  7
Arial
100
AcDbText
1001
AcadAnnotative
1000
AnnotativeData
1002
{
1070
     1
1070
     0
1002
}
  0
TEXT
  5
3FB
102
{ACAD_XDICTIONARY
360
3FC
102
}
330
1F
100
AcDbEntity
  8
Numar_sector_cadastral @ 1
 62
     1
100
AcDbText
 10
474759.5564656285
 20
622101.8096805686
 30
0.0
 40
5.0
  1
147
  7
Arial
100
AcDbText
1001
AcadAnnotative
1000
AnnotativeData
1002
{
1070
     1
1070
     0
1002
}
  0
TEXT
  5
3FE
102
{ACAD_XDICTIONARY
360
3FF
102
}
330
1F
100
AcDbEntity
  8
Numar_sector_cadastral @ 1
 62
     1
100
AcDbText
 10
474646.5963534639
 20
622075.6734354536
 30
0.0
 40
5.0
  1
148
  7
Arial
100
AcDbText
1001
AcadAnnotative
1000
AnnotativeData
1002
{
1070
     1
1070
     0
1002
}
  0
TEXT
  5
401
102
{ACAD_XDICTIONARY
360
402
102
}
330
1F
100
AcDbEntity
  8
Numar_sector_cadastral @ 1
 62
     1
100
AcDbText
 10
474615.0392244785
 20
622089.1490526216
 30
0.0
 40
5.0
  1
149
  7
Arial
100
AcDbText
1001
AcadAnnotative
1000
AnnotativeData
1002
{
1070
     1
1070
     0
1002
}
  0
TEXT
  5
404
102
{ACAD_XDICTIONARY
360
405
102
}
330
1F
100
AcDbEntity
  8
Numar_sector_cadastral @ 1
 62
     1
100
AcDbText
 10
474627.187812459
 20
622110.9532408009
 30
0.0
 40
5.0
  1
150
  7
Arial
100
AcDbText
1001
AcadAnnotative
1000
AnnotativeData
1002
{
1070
     1
1070
     0
1002
}
  0
LWPOLYLINE
  5
4D0
330
1F
100
AcDbEntity
  8
CAROIAJ
100
AcDbPolyline
 90
        6
 70
     1
 43
0.0
 10
474568.0297353554
 20
621928.1082939581
 10
474987.3017283214
 20
621928.1082939581
 10
474987.3017283214
 20
622268.2679579057
 10
475654.6884749512
 20
622268.2679579057
 10
475654.6884749512
 20
620668.2203954799
 10
474568.0297353554
 20
620668.2203954799
  0
INSERT
  5
59C
330
1F
100
AcDbEntity
  8
CAROIAJ
100
AcDbBlockReference
  2
*U35
 10
0.0
 20
0.0
 30
0.0
  0
TEXT
  5
5E1
330
1F
100
AcDbEntity
  8
0
100
AcDbText
 10
474633.46262352
 20
621905.0852699534
 30
0.0
 40
10.0
  1
DISPUNEREA SECTOARELOR CADASTRALE
  7
TITLE
 72
     4
 11
474782.1222415281
 21
621910.0886805946
 31
0.0
100
AcDbText
  0
TEXT
  5
5E2
330
1F
100
AcDbEntity
  8
0
100
AcDbText
 10
474676.195573934
 20
621884.9650111922
 30
0.0
 40
10.0
  1
PROIEC\U+021AIE STEREOGRAFICĂ 1970
  7
TITLE
 72
     4
 11
474793.0304988999
 21
621889.6751066901
 31
0.0
100
AcDbText
  0
LWPOLYLINE
  5
61A
330
1F
100
AcDbEntity
  8
Limita sector cadastral
 62
     7
100
AcDbPolyline
 90
       99
 70
     1
 43
0.0
 10
475434.4513413268
 20
621512.5081328572
 10
475374.8077210384
 20
621484.900537033
 10
475193.459655818
 20
621421.3176657318
 10
475174.1819106618
 20
621405.291235141
 10
475169.7105290776
 20
621401.573980554
 10
475131.8285779703
 20
621370.0810618989
 10
475116.5610103754
 20
621357.3884668693
 10
475098.3704063325
 20
621336.033764793
 10
475073.3521038426
 20
621302.2747222058
 10
475064.3542009751
 20
621281.6256837705
 10
475069.8151772906
 20
621267.2086097722
 10
475051.546105519
 20
621232.4617119435
 10
475038.1814606096
 20
621207.1514153738
 10
475002.6256446599
 20
621130.9860431367
 10
474988.8718567317
 20
620994.1999341264
 10
474985.3987854964
 20
620989.3621094028
 10
474982.2320857342
 20
620980.1321151917
 10
474944.6755322328
 20
620933.5834691438
 10
474909.0086378747
 20
620894.7974433542
 10
474865.1416953599
 20
620850.4975569511
 10
474812.3935127086
 20
620886.7756786554
 10
474770.8874066243
 20
620920.544342352
 10
474748.8691368693
 20
620958.9538146814
 10
474716.099403651
 20
621018.3723569217
 10
474710.8287558763
 20
621036.0661663916
 10
474706.6427082293
 20
621047.2450734832
 10
474704.5929127841
 20
621063.5465963314
 10
474697.7190963701
 20
621086.7776040241
 10
474680.0296331803
 20
621122.8477264928
 10
474673.9828688673
 20
621135.1775740721
 10
474651.9105367337
 20
621152.5521385361
 10
474632.2169667005
 20
621176.3180045872
 10
474608.0711885424
 20
621224.0022279885
 10
474598.5921886644
 20
621245.5607315241
 10
474582.7330203458
 20
621270.2874982038
 10
474579.1384617581
 20
621275.8918522176
 10
474573.6137437834
 20
621285.3022059203
 10
474564.4933742933
 20
621298.0801519739
 10
474560.6976529301
 20
621302.8383455719
 10
474557.9363424526
 20
621306.2998351228
 10
474546.2991354322
 20
621320.1149212782
 10
474557.6247158167
 20
621335.3610465633
 10
474569.6292315408
 20
621351.8073907186
 10
474573.4161200412
 20
621355.7359621962
 10
474591.9997197731
 20
621371.2512935614
 10
474616.8809525938
 20
621382.652766046
 10
474632.0289663852
 20
621394.5341522791
 10
474667.1652426985
 20
621425.3203717512
 10
474694.480638466
 20
621441.7796374029
 10
474727.9875663497
 20
621458.4932069151
 10
474756.0391273387
 20
621466.2335550592
 10
474776.0564546195
 20
621482.9755387376
 10
474791.2841168755
 20
621495.9425352544
 10
474835.1797939263
 20
621534.7273234353
 10
474852.7450358236
 20
621550.2082322076
 10
474881.3851406526
 20
621582.649109424
 10
474917.549145971
 20
621603.3015117583
 10
474923.6898327451
 20
621614.1330258615
 10
474935.6718394708
 20
621641.9906899434
 10
474949.256099592
 20
621671.7896812326
 10
474974.4655877232
 20
621677.8076485088
 10
474990.7946510059
 20
621685.7996770509
 10
475006.4679251939
 20
621686.0951498044
 10
475022.3715639536
 20
621691.3058984625
 10
475036.8471278423
 20
621711.3349287356
 10
475061.1969316394
 20
621737.6952422632
 10
475076.4948527773
 20
621760.0997252295
 10
475081.8688515797
 20
621775.7204910204
 10
475086.4606276942
 20
621800.4847064923
 10
475092.0869508404
 20
621814.1700335866
 10
475106.1532242732
 20
621828.267339636
 10
475115.5547227464
 20
621834.5444889172
 10
475126.5271824504
 20
621837.4943498034
 10
475141.234673229
 20
621838.2887873275
 10
475178.3922147068
 20
621836.0322165197
 10
475212.8209741203
 20
621825.213604588
 10
475264.5266811356
 20
621815.8447564339
 10
475277.8930478192
 20
621812.9114664249
 10
475291.6462090322
 20
621806.5898919418
 10
475359.4145563543
 20
621748.2584680261
 10
475369.4444781862
 20
621738.2354358115
 10
475381.2595548451
 20
621730.1391600146
 10
475389.5852309033
 20
621728.1596975436
 10
475401.7746411927
 20
621729.2765271153
 10
475443.3347706989
 20
621741.5553320756
 10
475469.4982099112
 20
621747.8153785497
 10
475489.8895818562
 20
621750.1899788335
 10
475507.3515588962
 20
621748.2770819621
 10
475522.2734465831
 20
621746.5840545914
 10
475555.5730111084
 20
621742.8059083298
 10
475572.5512982645
 20
621738.2586746751
 10
475588.5033772806
 20
621729.9640509335
 10
475600.2093597426
 20
621721.9269664965
 10
475622.8685601121
 20
621697.3233563826
 10
475637.7159256638
 20
621688.3042603519
 10
475661.6732784154
 20
621676.5020063238
 10
475682.3623596487
 20
621663.01323339
 10
475613.3888381654
 20
621646.4680308517
 10
475519.8003119704
 20
621585.5660578432
  0
TEXT
  5
61B
102
{ACAD_XDICTIONARY
360
61C
102
}
330
1F
100
AcDbEntity
  8
0
 62
     7
100
AcDbText
 10
475024.6615227699
 20
621062.9844273157
 30
0.0
 40
9.460217016760207
  1
Drum exploatare
 50
84.25823083790403
  7
Arial
100
AcDbText
  0
TEXT
  5
61F
102
{ACAD_XDICTIONARY
360
620
102
}
330
1F
100
AcDbEntity
  8
0
 62
     7
100
AcDbText
 10
475479.8016214953
 20
621506.1062870616
 30
0.0
 40
9.460217016760207
  1
Drum exploatare
 50
40.56321793899203
  7
Arial
100
AcDbText
  0
TEXT
  5
622
102
{ACAD_XDICTIONARY
360
623
102
}
330
1F
100
AcDbEntity
  8
0
 62
     7
100
AcDbText
 10
474751.6146886833
 20
621497.7786303554
 30
0.0
 40
9.460217016760207
  1
Drum exploatare
 50
40.56321793899203
  7
Arial
100
AcDbText
  0
TEXT
  5
625
102
{ACAD_XDICTIONARY
360
626
102
}
330
1F
100
AcDbEntity
  8
0
 62
     7
100
AcDbText
 10
474624.2688866892
 20
621147.2540426833
 30
0.0
 40
9.460217016760207
  1
Drum exploatare
 50
296.1241966090437
  7
Arial
100
AcDbText
  0
TEXT
  5
628
102
{ACAD_XDICTIONARY
360
629
102
}
330
1F
100
AcDbEntity
  8
0
 62
     7
100
AcDbText
 10
475339.2410051211
 20
621810.5393594294
 30
0.0
 40
9.460217016760207
  1
Drum exploatare
 50
325.5791265273964
  7
Arial
100
AcDbText
  0
INSERT
  5
69A
330
1F
100
AcDbEntity
  8
0
100
AcDbBlockReference
 66
     1
  2
ID
 10
474894.2444767578
 20
621214.4629022174
 30
0.0
  0
ATTRIB
  5
69B
102
{ACAD_XDICTIONARY
360
69C
102
}
330
69A
100
AcDbEntity
  8
0 @ 1
100
AcDbText
 10
474890.4400678531
 20
621212.6678357225
 30
0.0
 40
4.5
  1
1F
 50
359.5963903652307
  7
ROMANC
100
AcDbAttribute
  2
ID
 70
     0
1001
AcadAnnotative
1000
AnnotativeData
1002
{
1070
     1
1070
     0
1002
}
1001
AcDbAttr
1070
     0
1070
     1
  0
SEQEND
  5
69E
330
69A
100
AcDbEntity
  8
0
  0
ENDSEC
  0
SECTION
  2
OBJECTS
  0
DICTIONARY
  5
C
330
0
100
AcDbDictionary
281
     1
  3
ACAD_COLOR
350
73
  3
ACAD_GROUP
350
D
  3
ACAD_IMAGE_VARS
350
40B
  3
ACAD_LAYOUT
350
1A
  3
ACAD_MATERIAL
350
72
  3
ACAD_MLINESTYLE
350
17
  3
ACAD_PLOTSETTINGS
350
19
  3
ACAD_PLOTSTYLENAME
350
E
  3
ACAD_TABLESTYLE
350
86
  3
ACAD_VISUALSTYLE
350
99
  3
AcDbVariableDictionary
350
66
  3
DWGPROPS
350
69F
  3
TLTCFG60
350
4C5
  3
TLTLAY
350
4C7
  0
DICTIONARY
  5
174
330
2
100
AcDbDictionary
280
     1
281
     1
  3
ACAD_LAYERFILTERS
360
365
  3
ACAD_LAYERSTATES
360
175
  3
ACLYDICTIONARY
360
364
  0
DICTIONARY
  5
165
330
164
100
AcDbDictionary
280
     1
281
     1
  0
DICTIONARY
  5
167
330
166
100
AcDbDictionary
280
     1
281
     1
  0
DICTIONARY
  5
1E4
330
1E3
100
AcDbDictionary
280
     1
281
     1
  3
ASDK_XREC_ANNO_SCALE_INFO
360
1E5
  0
DICTIONARY
  5
3BE
330
3BD
100
AcDbDictionary
280
     1
281
     1
  3
ASDK_XREC_ANNO_SCALE_INFO
360
3BF
  0
DICTIONARY
  5
379
330
1F
100
AcDbDictionary
280
     1
281
     1
  3
ACAD_SORTENTS
360
37A
  0
DICTIONARY
  5
1DB
330
1DA
100
AcDbDictionary
280
     1
281
     1
  3
AcDbBlockTableRecordData
360
6A8
  0
DICTIONARY
  5
2AB
330
2AA
100
AcDbDictionary
280
     1
281
     1
  3
AcDbBlockTableRecordData
360
6AA
  0
DICTIONARY
  5
2B4
330
2B3
100
AcDbDictionary
280
     1
281
     1
  3
AcDbBlockTableRecordData
360
6AC
  0
DICTIONARY
  5
2BD
330
2BC
100
AcDbDictionary
280
     1
281
     1
  3
AcDbBlockTableRecordData
360
6AE
  0
DICTIONARY
  5
2C6
330
2C5
100
AcDbDictionary
280
     1
281
     1
  3
AcDbBlockTableRecordData
360
6B0
  0
DICTIONARY
  5
2CF
330
2CE
100
AcDbDictionary
280
     1
281
     1
  3
AcDbBlockTableRecordData
360
6B2
  0
DICTIONARY
  5
2D8
330
2D7
100
AcDbDictionary
280
     1
281
     1
  3
AcDbBlockTableRecordData
360
6B4
  0
DICTIONARY
  5
2E1
330
2E0
100
AcDbDictionary
280
     1
281
     1
  3
AcDbBlockTableRecordData
360
6B6
  0
DICTIONARY
  5
2EA
330
2E9
100
AcDbDictionary
280
     1
281
     1
  3
AcDbBlockTableRecordData
360
6B8
  0
DICTIONARY
  5
2F3
330
2F2
100
AcDbDictionary
280
     1
281
     1
  3
AcDbBlockTableRecordData
360
6BA
  0
DICTIONARY
  5
2FC
330
2FB
100
AcDbDictionary
280
     1
281
     1
  3
AcDbBlockTableRecordData
360
6BC
  0
DICTIONARY
  5
305
330
304
100
AcDbDictionary
280
     1
281
     1
  3
AcDbBlockTableRecordData
360
6BE
  0
DICTIONARY
  5
30E
330
30D
100
AcDbDictionary
280
     1
281
     1
  3
AcDbBlockTableRecordData
360
6C0
  0
DICTIONARY
  5
317
330
316
100
AcDbDictionary
280
     1
281
     1
  3
AcDbBlockTableRecordData
360
6C2
  0
DICTIONARY
  5
320
330
31F
100
AcDbDictionary
280
     1
281
     1
  3
AcDbBlockTableRecordData
360
6C4
  0
DICTIONARY
  5
1D7
330
1D6
100
AcDbDictionary
280
     1
281
     1
  3
AcDbContextDataManager
360
1D8
  0
DICTIONARY
  5
1DF
330
1DE
100
AcDbDictionary
280
     1
281
     1
  3
AcDbContextDataManager
360
1E0
  0
DICTIONARY
  5
2AF
330
2AE
100
AcDbDictionary
280
     1
281
     1
  3
AcDbContextDataManager
360
2B0
  0
DICTIONARY
  5
2B8
330
2B7
100
AcDbDictionary
280
     1
281
     1
  3
AcDbContextDataManager
360
2B9
  0
DICTIONARY
  5
2C1
330
2C0
100
AcDbDictionary
280
     1
281
     1
  3
AcDbContextDataManager
360
2C2
  0
DICTIONARY
  5
2CA
330
2C9
100
AcDbDictionary
280
     1
281
     1
  3
AcDbContextDataManager
360
2CB
  0
DICTIONARY
  5
2D3
330
2D2
100
AcDbDictionary
280
     1
281
     1
  3
AcDbContextDataManager
360
2D4
  0
DICTIONARY
  5
2DC
330
2DB
100
AcDbDictionary
280
     1
281
     1
  3
AcDbContextDataManager
360
2DD
  0
DICTIONARY
  5
2E5
330
2E4
100
AcDbDictionary
280
     1
281
     1
  3
AcDbContextDataManager
360
2E6
  0
DICTIONARY
  5
2EE
330
2ED
100
AcDbDictionary
280
     1
281
     1
  3
AcDbContextDataManager
360
2EF
  0
DICTIONARY
  5
2F7
330
2F6
100
AcDbDictionary
280
     1
281
     1
  3
AcDbContextDataManager
360
2F8
  0
DICTIONARY
  5
300
330
2FF
100
AcDbDictionary
280
     1
281
     1
  3
AcDbContextDataManager
360
301
  0
DICTIONARY
  5
309
330
308
100
AcDbDictionary
280
     1
281
     1
  3
AcDbContextDataManager
360
30A
  0
DICTIONARY
  5
312
330
311
100
AcDbDictionary
280
     1
281
     1
  3
AcDbContextDataManager
360
313
  0
DICTIONARY
  5
31B
330
31A
100
AcDbDictionary
280
     1
281
     1
  3
AcDbContextDataManager
360
31C
  0
DICTIONARY
  5
324
330
323
100
AcDbDictionary
280
     1
281
     1
  3
AcDbContextDataManager
360
325
  0
DICTIONARY
  5
1AC
330
1AB
100
AcDbDictionary
280
     1
281
     1
  3
ESRI_Attributes
360
1AD
  0
DICTIONARY
  5
23C
330
23B
100
AcDbDictionary
280
     1
281
     1
  3
AcDbContextDataManager
360
23D
  0
DICTIONARY
  5
241
330
240
100
AcDbDictionary
280
     1
281
     1
  3
AcDbContextDataManager
360
242
  0
DICTIONARY
  5
246
330
245
100
AcDbDictionary
280
     1
281
     1
  3
AcDbContextDataManager
360
247
  0
DICTIONARY
  5
24B
330
24A
100
AcDbDictionary
280
     1
281
     1
  3
AcDbContextDataManager
360
24C
  0
DICTIONARY
  5
250
330
24F
100
AcDbDictionary
280
     1
281
     1
  3
AcDbContextDataManager
360
251
  0
DICTIONARY
  5
255
330
254
100
AcDbDictionary
280
     1
281
     1
  3
AcDbContextDataManager
360
256
  0
DICTIONARY
  5
25A
330
259
100
AcDbDictionary
280
     1
281
     1
  3
AcDbContextDataManager
360
25B
  0
DICTIONARY
  5
25F
330
25E
100
AcDbDictionary
280
     1
281
     1
  3
AcDbContextDataManager
360
260
  0
DICTIONARY
  5
264
330
263
100
AcDbDictionary
280
     1
281
     1
  3
AcDbContextDataManager
360
265
  0
DICTIONARY
  5
26A
330
269
100
AcDbDictionary
280
     1
281
     1
  3
AcDbContextDataManager
360
26B
  0
DICTIONARY
  5
26F
330
26E
100
AcDbDictionary
280
     1
281
     1
  3
AcDbContextDataManager
360
270
  0
DICTIONARY
  5
274
330
273
100
AcDbDictionary
280
     1
281
     1
  3
AcDbContextDataManager
360
275
  0
DICTIONARY
  5
279
330
278
100
AcDbDictionary
280
     1
281
     1
  3
AcDbContextDataManager
360
27A
  0
DICTIONARY
  5
27E
330
27D
100
AcDbDictionary
280
     1
281
     1
  3
AcDbContextDataManager
360
27F
  0
DICTIONARY
  5
283
330
282
100
AcDbDictionary
280
     1
281
     1
  3
AcDbContextDataManager
360
284
  0
DICTIONARY
  5
351
330
350
100
AcDbDictionary
280
     1
281
     1
  3
AcDbContextDataManager
360
352
  0
DICTIONARY
  5
357
330
356
100
AcDbDictionary
280
     1
281
     1
  3
AcDbContextDataManager
360
358
  0
DICTIONARY
  5
3EB
330
3EA
100
AcDbDictionary
280
     1
281
     1
  3
AcDbContextDataManager
360
3EC
  0
DICTIONARY
  5
3F3
330
3F2
100
AcDbDictionary
280
     1
281
     1
  3
AcDbContextDataManager
360
3F4
  0
DICTIONARY
  5
3F6
330
3F5
100
AcDbDictionary
280
     1
281
     1
  3
AcDbContextDataManager
360
3F7
  0
DICTIONARY
  5
3F9
330
3F8
100
AcDbDictionary
280
     1
281
     1
  3
AcDbContextDataManager
360
3FA
  0
DICTIONARY
  5
3FC
330
3FB
100
AcDbDictionary
280
     1
281
     1
  3
AcDbContextDataManager
360
3FD
  0
DICTIONARY
  5
3FF
330
3FE
100
AcDbDictionary
280
     1
281
     1
  3
AcDbContextDataManager
360
400
  0
DICTIONARY
  5
402
330
401
100
AcDbDictionary
280
     1
281
     1
  3
AcDbContextDataManager
360
403
  0
DICTIONARY
  5
405
330
404
100
AcDbDictionary
280
     1
281
     1
  3
AcDbContextDataManager
360
406
  0
DICTIONARY
  5
61C
330
61B
100
AcDbDictionary
280
     1
281
     1
  3
ESRI_Attributes
360
61D
  0
DICTIONARY
  5
620
330
61F
100
AcDbDictionary
280
     1
281
     1
  3
ESRI_Attributes
360
621
  0
DICTIONARY
  5
623
330
622
100
AcDbDictionary
280
     1
281
     1
  3
ESRI_Attributes
360
624
  0
DICTIONARY
  5
626
330
625
100
AcDbDictionary
280
     1
281
     1
  3
ESRI_Attributes
360
627
  0
DICTIONARY
  5
629
330
628
100
AcDbDictionary
280
     1
281
     1
  3
ESRI_Attributes
360
62A
  0
DICTIONARY
  5
69C
330
69B
100
AcDbDictionary
280
     1
281
     1
  3
AcDbContextDataManager
360
69D
  0
DICTIONARY
  5
73
102
{ACAD_REACTORS
330
C
102
}
330
C
100
AcDbDictionary
281
     1
  0
DICTIONARY
  5
D
102
{ACAD_REACTORS
330
C
102
}
330
C
100
AcDbDictionary
281
     1
  0
RASTERVARIABLES
  5
40B
102
{ACAD_REACTORS
330
C
102
}
330
C
100
AcDbRasterVariables
 90
        0
 70
     1
 71
     1
 72
     5
  0
DICTIONARY
  5
1A
102
{ACAD_REACTORS
330
C
102
}
330
C
100
AcDbDictionary
281
     1
  3
Layout1
350
59
  3
Layout2
350
5E
  3
Model
350
22
  0
DICTIONARY
  5
72
102
{ACAD_REACTORS
330
C
102
}
330
C
100
AcDbDictionary
281
     1
  3
ByBlock
350
97
  3
ByLayer
350
96
  3
Global
350
98
  0
DICTIONARY
  5
17
102
{ACAD_REACTORS
330
C
102
}
330
C
100
AcDbDictionary
281
     1
  3
Standard
350
18
  0
DICTIONARY
  5
19
102
{ACAD_REACTORS
330
C
102
}
330
C
100
AcDbDictionary
281
     1
  0
ACDBDICTIONARYWDFLT
  5
E
102
{ACAD_REACTORS
330
C
102
}
330
C
100
AcDbDictionary
281
     1
  3
Normal
350
F
100
AcDbDictionaryWithDefault
340
F
  0
DICTIONARY
  5
86
102
{ACAD_REACTORS
330
C
102
}
330
C
100
AcDbDictionary
281
     1
  3
Standard
350
87
  0
DICTIONARY
  5
99
102
{ACAD_REACTORS
330
C
102
}
330
C
100
AcDbDictionary
281
     1
  3
2dWireframe
350
9F
  3
3D Hidden
350
A1
  3
3dWireframe
350
A0
  3
Basic
350
9E
  3
Brighten
350
A5
  3
ColorChange
350
A9
  3
Conceptual
350
A2
  3
Dim
350
A4
  3
Facepattern
350
A8
  3
Flat
350
9A
  3
FlatWithEdges
350
9B
  3
Gouraud
350
9C
  3
GouraudWithEdges
350
9D
  3
Linepattern
350
A7
  3
Realistic
350
A3
  3
Thicken
350
A6
  3
Wireframe
350
5D6
  0
DICTIONARY
  5
66
102
{ACAD_REACTORS
330
C
102
}
330
C
100
AcDbDictionary
281
     1
  3
CTABLESTYLE
350
89
  3
DIMASSOC
350
67
  3
HIDETEXT
350
6B
  3
INDEXCTL
350
59E
  3
SORTENTS
350
59D
  0
XRECORD
  5
69F
102
{ACAD_REACTORS
330
C
102
}
330
C
100
AcDbXrecord
280
     1
  1
DWGPROPS COOKIE
  2

  3

  4

  6

  7

  8
mihai
  9

300
=
301
=
302
=
303
=
304
=
305
=
306
=
307
=
308
=
309
=
 40
0.0211514236111111
 41
2460230.042642709
 42
2460251.080578681
  1

 90
        0
  0
XRECORD
  5
4C5
102
{ACAD_REACTORS
330
C
102
}
330
C
100
AcDbXrecord
280
     1
  1
C:\Program Files (x86)\TopoLT\TopoLT.cod
  1
C:\Program Files (x86)\TopoLT\TopoLT.lay
  1
C:\Program Files (x86)\TopoLT\TopoLT.lin
  1
C:\Program Files (x86)\TopoLT\TopoLT.shx
  1
C:\Program Files (x86)\TopoLT\Symb1000\
  1
0,.coo,.tab,.rad,
  1
2000.0,2,0,
  1
ROMANS.SHX;ROMANS.SHX,1.5,100.0,0.5,32,Punct.dwg,Grf,0.03,0,0,1,0,1,0.85,
  1
ROMAND.SHX;ROMAND.SHX,0.8,1.9,100.0,10.0,1,0,
  1
ROMAND.SHX;ROMAND.SHX,2.0,0.35,0.0,1,0,1,1,
  1
0,X,Y,Z,1,3,60,1,ST,ARIAL;ARIAL.TTF,1.8,
  1
1,ROMAND.SHX;ROMAND.SHX,1.0,,m,2,1,
  1
iR-ADV C3320,0,8.26,11.69,0.23,0.23,0.16,0.17,20.0,6.981,5.965,6.219,0.5,CartCad.dwg,0,NO_PLAN,0.07,A4,
  1
0,5,1,0,0,0,15,1,0,1,1,1,1,50.0,1,
  1
0,0,0,1,1,ITALICC.SHX;ITALICC.SHX,1.8,100.0,0.25,0.0,0.25,0.0,4,1,1,0.75,0,0,1,0,1,1,
  1
3,
  1
1,0,3,3,m,3,1.0,m,2,1.0,mp,2,1.0,mc,
  1
A0968C82786E645A50463C32281E140A
  0
XRECORD
  5
4C7
102
{ACAD_REACTORS
330
C
102
}
330
C
100
AcDbXrecord
280
     1
  3
PCT,Y,0_PCT_CODURI,6,N
  3
PCT,Y,0_PCT_COTE,5,N
  3
PCT,Y,0_PCT_DENUMIRI,7,Y
  3
PCT,Y,0_PCT_LINII_MARCAJ,5,N
  3
PCT,Y,0_PCT_SIMBOLURI,7,Y
  3
PCT,Y,0_PCT_TEXTE_SUPRAPUSE,1,N
  3
CAR,Y,CAROIAJ,1,Y
  3
IMG,Y,IMAGINI_RASTER,7,Y
  3
CNT-M3D,Y,CURBE_DE_NIVEL,1,Y
  3
M3D,Y,MODEL_3D,3,Y
  3
PLAN,Y,PLANSA,7,Y
  3
DIM,Y,COTARI,4,Y
  3
VOL,Y,VOLUM,1,Y
  0
DICTIONARY
  5
365
102
{ACAD_REACTORS
330
174
102
}
330
174
100
AcDbDictionary
281
     1
  0
DICTIONARY
  5
175
102
{ACAD_REACTORS
330
174
102
}
330
174
100
AcDbDictionary
281
     1
  0
DICTIONARY
  5
364
102
{ACAD_REACTORS
330
174
102
}
330
174
100
AcDbDictionary
281
     1
1001
ACAD
1000
<All
  0
XRECORD
  5
1E5
102
{ACAD_REACTORS
330
1E4
102
}
330
1E4
100
AcDbXrecord
280
     1
 70
     1
340
0
340
10
 70
    -1
  0
XRECORD
  5
3BF
102
{ACAD_REACTORS
330
3BE
102
}
330
3BE
100
AcDbXrecord
280
     1
 70
     1
340
0
340
3BC
 70
    -1
  0
SORTENTSTABLE
  5
37A
102
{ACAD_REACTORS
330
379
102
}
330
379
100
AcDbSortentsTable
330
1F
331
281
  5
29D
331
1A8
  5
1AB
331
258
  5
262
331
34A
  5
2A3
331
397
  5
36F
331
1B0
  5
1B3
331
1B8
  5
1BB
331
1C0
  5
1C3
331
35C
  5
349
331
268
  5
272
331
3BA
  5
3E8
331
3B7
  5
3B8
331
2A0
  5
396
331
3EF
  5
3F0
331
1A9
  5
1AE
331
404
  5
4D0
331
390
  5
355
331
34B
  5
2A4
331
398
  5
370
331
1B1
  5
1B4
331
1B9
  5
1BC
331
1C1
  5
1C4
331
35D
  5
34A
331
24E
  5
258
331
3F5
  5
3F8
331
3E8
  5
3E9
331
2A1
  5
397
331
3F8
  5
3FB
331
1AA
  5
1AF
331
391
  5
35A
331
34C
  5
2A5
331
399
  5
378
331
1B2
  5
1B5
331
1BA
  5
1BD
331
3A9
  5
390
331
1C2
  5
1C5
331
262
  5
268
331
23F
  5
249
331
272
  5
27C
331
354
  5
2A9
331
3E9
  5
3EA
331
2A2
  5
1A5
331
1AB
  5
1B0
331
253
  5
25D
331
1D3
  5
69A
331
392
  5
35B
331
34D
  5
2A6
331
39A
  5
38E
331
1B3
  5
1B6
331
1BB
  5
1BE
331
1C3
  5
1C6
331
355
  5
346
331
3EA
  5
3ED
331
2A3
  5
398
331
393
  5
35C
331
34E
  5
2A7
331
39B
  5
38F
331
1B4
  5
1B7
331
3A3
  5
3B6
331
1BC
  5
1BF
331
1C4
  5
1C7
331
370
  5
34E
331
249
  5
253
331
27C
  5
29C
331
3F0
  5
3F1
331
29C
  5
393
331
2A4
  5
399
331
3FB
  5
3FE
331
25D
  5
267
331
4D0
  5
1A9
331
394
  5
35D
331
34F
  5
2A8
331
1A5
  5
1A7
331
39C
  5
1A6
331
1B5
  5
1B8
331
1BD
  5
1C0
331
1C5
  5
1C8
331
378
  5
3A9
331
23A
  5
244
331
26D
  5
277
331
3F1
  5
3F2
331
29D
  5
392
331
2A5
  5
39A
331
36D
  5
34B
331
1AE
  5
1B1
331
401
  5
404
331
2A8
  5
3A3
331
346
  5
29E
331
395
  5
36D
331
1A6
  5
1A8
331
1B6
  5
1B9
331
1BE
  5
1C1
331
69A
  5
2A1
331
1C6
  5
1D3
331
35A
  5
347
331
3B8
  5
3B9
331
3F2
  5
3F5
331
29E
  5
394
331
3ED
  5
3EE
331
2A6
  5
39B
331
36E
  5
34C
331
38E
  5
34F
331
1C8
  5
23F
331
1AF
  5
1B2
331
2A9
  5
391
331
349
  5
2A2
331
347
  5
29F
331
396
  5
36E
331
1A7
  5
1AA
331
1B7
  5
1BA
331
1BF
  5
1C2
331
1C7
  5
23A
331
35B
  5
348
331
267
  5
26D
331
3B9
  5
3BA
331
244
  5
24E
331
277
  5
281
331
3B6
  5
3B7
331
29F
  5
395
331
3EE
  5
3EF
331
2A7
  5
39C
331
3FE
  5
401
331
36F
  5
34D
331
38F
  5
354
  0
DICTIONARY
  5
6A8
102
{ACAD_REACTORS
330
1DB
102
}
330
1DB
100
AcDbDictionary
280
     1
281
     1
  3
Edit
360
6A9
  0
DICTIONARY
  5
6AA
102
{ACAD_REACTORS
330
2AB
102
}
330
2AB
100
AcDbDictionary
280
     1
281
     1
  3
Edit
360
6AB
  0
DICTIONARY
  5
6AC
102
{ACAD_REACTORS
330
2B4
102
}
330
2B4
100
AcDbDictionary
280
     1
281
     1
  3
Edit
360
6AD
  0
DICTIONARY
  5
6AE
102
{ACAD_REACTORS
330
2BD
102
}
330
2BD
100
AcDbDictionary
280
     1
281
     1
  3
Edit
360
6AF
  0
DICTIONARY
  5
6B0
102
{ACAD_REACTORS
330
2C6
102
}
330
2C6
100
AcDbDictionary
280
     1
281
     1
  3
Edit
360
6B1
  0
DICTIONARY
  5
6B2
102
{ACAD_REACTORS
330
2CF
102
}
330
2CF
100
AcDbDictionary
280
     1
281
     1
  3
Edit
360
6B3
  0
DICTIONARY
  5
6B4
102
{ACAD_REACTORS
330
2D8
102
}
330
2D8
100
AcDbDictionary
280
     1
281
     1
  3
Edit
360
6B5
  0
DICTIONARY
  5
6B6
102
{ACAD_REACTORS
330
2E1
102
}
330
2E1
100
AcDbDictionary
280
     1
281
     1
  3
Edit
360
6B7
  0
DICTIONARY
  5
6B8
102
{ACAD_REACTORS
330
2EA
102
}
330
2EA
100
AcDbDictionary
280
     1
281
     1
  3
Edit
360
6B9
  0
DICTIONARY
  5
6BA
102
{ACAD_REACTORS
330
2F3
102
}
330
2F3
100
AcDbDictionary
280
     1
281
     1
  3
Edit
360
6BB
  0
DICTIONARY
  5
6BC
102
{ACAD_REACTORS
330
2FC
102
}
330
2FC
100
AcDbDictionary
280
     1
281
     1
  3
Edit
360
6BD
  0
DICTIONARY
  5
6BE
102
{ACAD_REACTORS
330
305
102
}
330
305
100
AcDbDictionary
280
     1
281
     1
  3
Edit
360
6BF
  0
DICTIONARY
  5
6C0
102
{ACAD_REACTORS
330
30E
102
}
330
30E
100
AcDbDictionary
280
     1
281
     1
  3
Edit
360
6C1
  0
DICTIONARY
  5
6C2
102
{ACAD_REACTORS
330
317
102
}
330
317
100
AcDbDictionary
280
     1
281
     1
  3
Edit
360
6C3
  0
DICTIONARY
  5
6C4
102
{ACAD_REACTORS
330
320
102
}
330
320
100
AcDbDictionary
280
     1
281
     1
  3
Edit
360
6C5
  0
DICTIONARY
  5
1D8
102
{ACAD_REACTORS
330
1D7
102
}
330
1D7
100
AcDbDictionary
281
     1
  0
DICTIONARY
  5
1E0
102
{ACAD_REACTORS
330
1DF
102
}
330
1DF
100
AcDbDictionary
281
     1
  0
DICTIONARY
  5
2B0
102
{ACAD_REACTORS
330
2AF
102
}
330
2AF
100
AcDbDictionary
281
     1
  0
DICTIONARY
  5
2B9
102
{ACAD_REACTORS
330
2B8
102
}
330
2B8
100
AcDbDictionary
281
     1
  0
DICTIONARY
  5
2C2
102
{ACAD_REACTORS
330
2C1
102
}
330
2C1
100
AcDbDictionary
281
     1
  0
DICTIONARY
  5
2CB
102
{ACAD_REACTORS
330
2CA
102
}
330
2CA
100
AcDbDictionary
281
     1
  0
DICTIONARY
  5
2D4
102
{ACAD_REACTORS
330
2D3
102
}
330
2D3
100
AcDbDictionary
281
     1
  0
DICTIONARY
  5
2DD
102
{ACAD_REACTORS
330
2DC
102
}
330
2DC
100
AcDbDictionary
281
     1
  0
DICTIONARY
  5
2E6
102
{ACAD_REACTORS
330
2E5
102
}
330
2E5
100
AcDbDictionary
281
     1
  0
DICTIONARY
  5
2EF
102
{ACAD_REACTORS
330
2EE
102
}
330
2EE
100
AcDbDictionary
281
     1
  0
DICTIONARY
  5
2F8
102
{ACAD_REACTORS
330
2F7
102
}
330
2F7
100
AcDbDictionary
281
     1
  0
DICTIONARY
  5
301
102
{ACAD_REACTORS
330
300
102
}
330
300
100
AcDbDictionary
281
     1
  0
DICTIONARY
  5
30A
102
{ACAD_REACTORS
330
309
102
}
330
309
100
AcDbDictionary
281
     1
  0
DICTIONARY
  5
313
102
{ACAD_REACTORS
330
312
102
}
330
312
100
AcDbDictionary
281
     1
  0
DICTIONARY
  5
31C
102
{ACAD_REACTORS
330
31B
102
}
330
31B
100
AcDbDictionary
281
     1
  0
DICTIONARY
  5
325
102
{ACAD_REACTORS
330
324
102
}
330
324
100
AcDbDictionary
281
     1
  0
DICTIONARY
  5
1AD
102
{ACAD_REACTORS
330
1AC
102
}
330
1AC
100
AcDbDictionary
281
     1
  0
DICTIONARY
  5
23D
102
{ACAD_REACTORS
330
23C
102
}
330
23C
100
AcDbDictionary
281
     1
  0
DICTIONARY
  5
242
102
{ACAD_REACTORS
330
241
102
}
330
241
100
AcDbDictionary
281
     1
  0
DICTIONARY
  5
247
102
{ACAD_REACTORS
330
246
102
}
330
246
100
AcDbDictionary
281
     1
  0
DICTIONARY
  5
24C
102
{ACAD_REACTORS
330
24B
102
}
330
24B
100
AcDbDictionary
281
     1
  0
DICTIONARY
  5
251
102
{ACAD_REACTORS
330
250
102
}
330
250
100
AcDbDictionary
281
     1
  0
DICTIONARY
  5
256
102
{ACAD_REACTORS
330
255
102
}
330
255
100
AcDbDictionary
281
     1
  0
DICTIONARY
  5
25B
102
{ACAD_REACTORS
330
25A
102
}
330
25A
100
AcDbDictionary
281
     1
  0
DICTIONARY
  5
260
102
{ACAD_REACTORS
330
25F
102
}
330
25F
100
AcDbDictionary
281
     1
  0
DICTIONARY
  5
265
102
{ACAD_REACTORS
330
264
102
}
330
264
100
AcDbDictionary
281
     1
  0
DICTIONARY
  5
26B
102
{ACAD_REACTORS
330
26A
102
}
330
26A
100
AcDbDictionary
281
     1
  0
DICTIONARY
  5
270
102
{ACAD_REACTORS
330
26F
102
}
330
26F
100
AcDbDictionary
281
     1
  0
DICTIONARY
  5
275
102
{ACAD_REACTORS
330
274
102
}
330
274
100
AcDbDictionary
281
     1
  0
DICTIONARY
  5
27A
102
{ACAD_REACTORS
330
279
102
}
330
279
100
AcDbDictionary
281
     1
  0
DICTIONARY
  5
27F
102
{ACAD_REACTORS
330
27E
102
}
330
27E
100
AcDbDictionary
281
     1
  0
DICTIONARY
  5
284
102
{ACAD_REACTORS
330
283
102
}
330
283
100
AcDbDictionary
281
     1
  0
DICTIONARY
  5
352
102
{ACAD_REACTORS
330
351
102
}
330
351
100
AcDbDictionary
281
     1
  0
DICTIONARY
  5
358
102
{ACAD_REACTORS
330
357
102
}
330
357
100
AcDbDictionary
281
     1
  0
DICTIONARY
  5
3EC
102
{ACAD_REACTORS
330
3EB
102
}
330
3EB
100
AcDbDictionary
281
     1
  0
DICTIONARY
  5
3F4
102
{ACAD_REACTORS
330
3F3
102
}
330
3F3
100
AcDbDictionary
281
     1
  0
DICTIONARY
  5
3F7
102
{ACAD_REACTORS
330
3F6
102
}
330
3F6
100
AcDbDictionary
281
     1
  0
DICTIONARY
  5
3FA
102
{ACAD_REACTORS
330
3F9
102
}
330
3F9
100
AcDbDictionary
281
     1
  0
DICTIONARY
  5
3FD
102
{ACAD_REACTORS
330
3FC
102
}
330
3FC
100
AcDbDictionary
281
     1
  0
DICTIONARY
  5
400
102
{ACAD_REACTORS
330
3FF
102
}
330
3FF
100
AcDbDictionary
281
     1
  0
DICTIONARY
  5
403
102
{ACAD_REACTORS
330
402
102
}
330
402
100
AcDbDictionary
281
     1
  0
DICTIONARY
  5
406
102
{ACAD_REACTORS
330
405
102
}
330
405
100
AcDbDictionary
281
     1
  0
DICTIONARY
  5
61D
102
{ACAD_REACTORS
330
61C
102
}
330
61C
100
AcDbDictionary
281
     1
  0
DICTIONARY
  5
621
102
{ACAD_REACTORS
330
620
102
}
330
620
100
AcDbDictionary
281
     1
  0
DICTIONARY
  5
624
102
{ACAD_REACTORS
330
623
102
}
330
623
100
AcDbDictionary
281
     1
  0
DICTIONARY
  5
627
102
{ACAD_REACTORS
330
626
102
}
330
626
100
AcDbDictionary
281
     1
  0
DICTIONARY
  5
62A
102
{ACAD_REACTORS
330
629
102
}
330
629
100
AcDbDictionary
281
     1
  0
DICTIONARY
  5
69D
102
{ACAD_REACTORS
330
69C
102
}
330
69C
100
AcDbDictionary
281
     1
  0
LAYOUT
  5
59
102
{ACAD_XDICTIONARY
360
6A2
102
}
102
{ACAD_REACTORS
330
1A
102
}
330
1A
100
AcDbPlotSettings
  1

  2
None
  4

  6

 40
0.0
 41
0.0
 42
0.0
 43
0.0
 44
0.0
 45
0.0
 46
0.0
 47
0.0
 48
0.0
 49
0.0
140
0.0
141
0.0
142
1.0
143
1.0
 70
   688
 72
     0
 73
     0
 74
     5
  7

 75
    16
147
1.0
148
0.0
149
0.0
100
AcDbLayout
  1
Layout1
 70
     1
 71
     1
 10
0.0
 20
0.0
 11
12.0
 21
9.0
 12
0.0
 22
0.0
 32
0.0
 14
0.0
 24
0.0
 34
0.0
 15
0.0
 25
0.0
 35
0.0
146
0.0
 13
0.0
 23
0.0
 33
0.0
 16
1.0
 26
0.0
 36
0.0
 17
0.0
 27
1.0
 37
0.0
 76
     0
330
58
  0
LAYOUT
  5
5E
102
{ACAD_XDICTIONARY
360
6A4
102
}
102
{ACAD_REACTORS
330
1A
102
}
330
1A
100
AcDbPlotSettings
  1

  2
None
  4

  6

 40
0.0
 41
0.0
 42
0.0
 43
0.0
 44
0.0
 45
0.0
 46
0.0
 47
0.0
 48
0.0
 49
0.0
140
0.0
141
0.0
142
1.0
143
1.0
 70
   688
 72
     0
 73
     0
 74
     5
  7

 75
    16
147
1.0
148
0.0
149
0.0
100
AcDbLayout
  1
Layout2
 70
     1
 71
     2
 10
0.0
 20
0.0
 11
12.0
 21
9.0
 12
0.0
 22
0.0
 32
0.0
 14
0.0
 24
0.0
 34
0.0
 15
0.0
 25
0.0
 35
0.0
146
0.0
 13
0.0
 23
0.0
 33
0.0
 16
1.0
 26
0.0
 36
0.0
 17
0.0
 27
1.0
 37
0.0
 76
     0
330
5D
  0
LAYOUT
  5
22
102
{ACAD_XDICTIONARY
360
6A0
102
}
102
{ACAD_REACTORS
330
1A
102
}
330
1A
100
AcDbPlotSettings
  1

  2
none_device
  4
ANSI_A_(8.50_x_11.00_Inches)
  6

 40
6.349999904632567
 41
19.04999923706055
 42
6.350006103515625
 43
19.04998779296875
 44
215.8999938964844
 45
279.3999938964844
 46
0.0
 47
0.0
 48
0.0
 49
0.0
140
0.0
141
0.0
142
1.0
143
2.584895464708373
 70
 11952
 72
     0
 73
     1
 74
     0
  7

 75
     0
147
0.3868628397755418
148
0.0
149
0.0
100
AcDbLayout
  1
Model
 70
     1
 71
     0
 10
0.0
 20
0.0
 11
12.0
 21
9.0
 12
0.0
 22
0.0
 32
0.0
 14
0.0
 24
0.0
 34
0.0
 15
0.0
 25
0.0
 35
0.0
146
0.0
 13
0.0
 23
0.0
 33
0.0
 16
1.0
 26
0.0
 36
0.0
 17
0.0
 27
1.0
 37
0.0
 76
     0
330
1F
331
94
  0
MATERIAL
  5
97
102
{ACAD_XDICTIONARY
360
66C
102
}
102
{ACAD_REACTORS
330
72
102
}
330
72
100
AcDbMaterial
  1
ByBlock
  0
MATERIAL
  5
96
102
{ACAD_XDICTIONARY
360
66A
102
}
102
{ACAD_REACTORS
330
72
102
}
330
72
100
AcDbMaterial
  1
ByLayer
  0
MATERIAL
  5
98
102
{ACAD_XDICTIONARY
360
66E
102
}
102
{ACAD_REACTORS
330
72
102
}
330
72
100
AcDbMaterial
  1
Global
  0
MLINESTYLE
  5
18
102
{ACAD_REACTORS
330
17
102
}
330
17
100
AcDbMlineStyle
  2
STANDARD
 70
     0
  3

 62
   256
 51
90.0
 52
90.0
 71
     2
 49
0.5
 62
   256
  6
BYLAYER
 49
-0.5
 62
   256
  6
BYLAYER
  0
ACDBPLACEHOLDER
  5
F
102
{ACAD_REACTORS
330
E
102
}
330
E
  0
TABLESTYLE
  5
87
102
{ACAD_XDICTIONARY
360
6A6
102
}
102
{ACAD_REACTORS
330
86
102
}
330
86
100
AcDbTableStyle
  3
Standard
 70
     0
 71
     0
 40
0.06
 41
0.06
280
     0
281
     0
  7
Standard
140
0.18
170
     2
 62
     0
 63
     7
283
     0
274
    -2
284
     1
 64
     0
275
    -2
285
     1
 65
     0
276
    -2
286
     1
 66
     0
277
    -2
287
     1
 67
     0
278
    -2
288
     1
 68
     0
279
    -2
289
     1
 69
     0
  7
Standard
140
0.25
170
     5
 62
     0
 63
     7
283
     0
274
    -2
284
     1
 64
     0
275
    -2
285
     1
 65
     0
276
    -2
286
     1
 66
     0
277
    -2
287
     1
 67
     0
278
    -2
288
     1
 68
     0
279
    -2
289
     1
 69
     0
  7
Standard
140
0.18
170
     5
 62
     0
 63
     7
283
     0
274
    -2
284
     1
 64
     0
275
    -2
285
     1
 65
     0
276
    -2
286
     1
 66
     0
277
    -2
287
     1
 67
     0
278
    -2
288
     1
 68
     0
279
    -2
289
     1
 69
     0
  0
VISUALSTYLE
  5
9F
102
{ACAD_REACTORS
330
99
102
}
330
99
100
AcDbVisualStyle
  2
2dWireframe
 70
     4
 71
     0
 72
     2
 73
     1
 90
        0
 40
-0.6
 41
-30.0
 62
     5
 63
     7
 74
     1
 91
        4
 64
     7
 65
   257
 75
     1
175
     1
 42
1.0
 92
        0
 66
   257
 43
1.0
 76
     1
 77
     6
 78
     2
 67
     7
 79
     5
170
     0
171
     0
290
     0
174
     0
 93
        1
 44
0.0
173
     0
291
     0
 45
0.0
1001
ACAD
1000
AcDbSavedByObjectVersion
1070
     0
1000
AcDbSavedByObjectVersion
1070
     0
  0
VISUALSTYLE
  5
A1
102
{ACAD_REACTORS
330
99
102
}
330
99
100
AcDbVisualStyle
  2
3D Hidden
 70
     6
 71
     1
 72
     2
 73
     2
 90
        0
 40
-0.6
 41
-30.0
 62
     5
 63
     7
 74
     2
 91
        2
 64
     7
 65
   257
 75
     2
175
     1
 42
40.0
 92
        0
 66
   257
 43
1.0
 76
     1
 77
     6
 78
     2
 67
     7
 79
     3
170
     0
171
     0
290
     0
174
     0
 93
        1
 44
0.0
173
     0
291
     0
 45
0.0
1001
ACAD
1000
AcDbSavedByObjectVersion
1070
     0
1000
AcDbSavedByObjectVersion
1070
     0
  0
VISUALSTYLE
  5
A0
102
{ACAD_REACTORS
330
99
102
}
330
99
100
AcDbVisualStyle
  2
3dWireframe
 70
     5
 71
     0
 72
     2
 73
     1
 90
        0
 40
-0.6
 41
-30.0
 62
     5
 63
     7
 74
     1
 91
        4
 64
     7
 65
   257
 75
     1
175
     1
 42
1.0
 92
        0
 66
   257
 43
1.0
 76
     1
 77
     6
 78
     2
 67
     7
 79
     5
170
     0
171
     0
290
     0
174
     0
 93
        1
 44
0.0
173
     0
291
     0
 45
0.0
1001
ACAD
1000
AcDbSavedByObjectVersion
1070
     0
1000
AcDbSavedByObjectVersion
1070
     0
  0
VISUALSTYLE
  5
9E
102
{ACAD_REACTORS
330
99
102
}
330
99
100
AcDbVisualStyle
  2
Basic
 70
     7
 71
     1
 72
     0
 73
     1
 90
        0
 40
-0.6
 41
-30.0
 62
     5
 63
     7
 74
     0
 91
        4
 64
     7
 65
   257
 75
     1
175
     1
 42
1.0
 92
        8
 66
     7
 43
1.0
 76
     1
 77
     6
 78
     2
 67
     7
 79
     5
170
     0
171
     0
290
     0
174
     0
 93
        1
 44
0.0
173
     0
291
     1
 45
0.0
1001
ACAD
1000
AcDbSavedByObjectVersion
1070
     0
1000
AcDbSavedByObjectVersion
1070
     0
  0
VISUALSTYLE
  5
A5
102
{ACAD_REACTORS
330
99
102
}
330
99
100
AcDbVisualStyle
  2
Brighten
 70
    12
 71
     2
 72
     2
 73
     1
 90
        0
 40
-0.6
 41
-30.0
 62
     5
 63
     7
 74
     1
 91
        4
 64
     7
 65
   257
 75
     1
175
     1
 42
1.0
 92
        8
 66
     7
 43
1.0
 76
     1
 77
     6
 78
     2
 67
     7
 79
     5
170
     0
171
     0
290
     0
174
     0
 93
        1
 44
50.0
173
     0
291
     1
 45
0.0
1001
ACAD
1000
AcDbSavedByObjectVersion
1070
     0
1000
AcDbSavedByObjectVersion
1070
     0
  0
VISUALSTYLE
  5
A9
102
{ACAD_REACTORS
330
99
102
}
330
99
100
AcDbVisualStyle
  2
ColorChange
 70
    16
 71
     2
 72
     2
 73
     3
 90
        0
 40
-0.6
 41
-30.0
 62
     5
 63
     8
 74
     1
 91
        4
 64
     7
 65
   257
 75
     1
175
     1
 42
1.0
 92
        8
 66
     8
 43
1.0
 76
     1
 77
     6
 78
     2
 67
     7
 79
     5
170
     0
171
     0
290
     0
174
     0
 93
        1
 44
0.0
173
     0
291
     1
 45
0.0
1001
ACAD
1000
AcDbSavedByObjectVersion
1070
     0
1000
AcDbSavedByObjectVersion
1070
     0
  0
VISUALSTYLE
  5
A2
102
{ACAD_REACTORS
330
99
102
}
330
99
100
AcDbVisualStyle
  2
Conceptual
 70
     9
 71
     3
 72
     2
 73
     1
 90
        0
 40
-0.6
 41
-30.0
 62
     5
 63
     7
 74
     2
 91
        2
 64
     7
 65
   257
 75
     1
175
     1
 42
40.0
 92
        8
 66
     7
 43
1.0
 76
     1
 77
     6
 78
     2
 67
     7
 79
     3
170
     0
171
     0
290
     0
174
     0
 93
        1
 44
0.0
173
     0
291
     0
 45
0.0
1001
ACAD
1000
AcDbSavedByObjectVersion
1070
     0
1000
AcDbSavedByObjectVersion
1070
     0
  0
VISUALSTYLE
  5
A4
102
{ACAD_REACTORS
330
99
102
}
330
99
100
AcDbVisualStyle
  2
Dim
 70
    11
 71
     2
 72
     2
 73
     1
 90
        0
 40
-0.6
 41
-30.0
 62
     5
 63
     7
 74
     1
 91
        4
 64
     7
 65
   257
 75
     1
175
     1
 42
1.0
 92
        8
 66
     7
 43
1.0
 76
     1
 77
     6
 78
     2
 67
     7
 79
     5
170
     0
171
     0
290
     0
174
     0
 93
        1
 44
-50.0
173
     0
291
     1
 45
0.0
1001
ACAD
1000
AcDbSavedByObjectVersion
1070
     0
1000
AcDbSavedByObjectVersion
1070
     0
  0
VISUALSTYLE
  5
A8
102
{ACAD_REACTORS
330
99
102
}
330
99
100
AcDbVisualStyle
  2
Facepattern
 70
    15
 71
     2
 72
     2
 73
     1
 90
        0
 40
-0.6
 41
-30.0
 62
     5
 63
     7
 74
     1
 91
        4
 64
     7
 65
   257
 75
     1
175
     1
 42
1.0
 92
        8
 66
     7
 43
1.0
 76
     1
 77
     6
 78
     2
 67
     7
 79
     5
170
     0
171
     0
290
     0
174
     0
 93
        1
 44
0.0
173
     0
291
     1
 45
0.0
1001
ACAD
1000
AcDbSavedByObjectVersion
1070
     0
1000
AcDbSavedByObjectVersion
1070
     0
  0
VISUALSTYLE
  5
9A
102
{ACAD_REACTORS
330
99
102
}
330
99
100
AcDbVisualStyle
  2
Flat
 70
     0
 71
     2
 72
     1
 73
     1
 90
        2
 40
-0.6
 41
30.0
 62
     5
 63
     7
 74
     0
 91
        4
 64
     7
 65
   257
 75
     1
175
     1
 42
1.0
 92
        8
 66
     7
 43
1.0
 76
     1
 77
     6
 78
     2
 67
     7
 79
     5
170
     0
171
     0
290
     0
174
     0
 93
        1
 44
0.0
173
     0
291
     1
 45
0.0
1001
ACAD
1000
AcDbSavedByObjectVersion
1070
     0
1000
AcDbSavedByObjectVersion
1070
     0
  0
VISUALSTYLE
  5
9B
102
{ACAD_REACTORS
330
99
102
}
330
99
100
AcDbVisualStyle
  2
FlatWithEdges
 70
     1
 71
     2
 72
     1
 73
     1
 90
        2
 40
-0.6
 41
30.0
 62
     5
 63
     7
 74
     1
 91
        4
 64
     7
 65
   257
 75
     1
175
     1
 42
1.0
 92
        0
 66
   257
 43
1.0
 76
     1
 77
     6
 78
     2
 67
     7
 79
     5
170
     0
171
     0
290
     0
174
     0
 93
        1
 44
0.0
173
     0
291
     1
 45
0.0
1001
ACAD
1000
AcDbSavedByObjectVersion
1070
     0
1000
AcDbSavedByObjectVersion
1070
     0
  0
VISUALSTYLE
  5
9C
102
{ACAD_REACTORS
330
99
102
}
330
99
100
AcDbVisualStyle
  2
Gouraud
 70
     2
 71
     2
 72
     2
 73
     1
 90
        2
 40
-0.6
 41
30.0
 62
     5
 63
     7
 74
     0
 91
        4
 64
     7
 65
   257
 75
     1
175
     1
 42
1.0
 92
        0
 66
     7
 43
1.0
 76
     1
 77
     6
 78
     2
 67
     7
 79
     5
170
     0
171
     0
290
     0
174
     0
 93
        1
 44
0.0
173
     0
291
     1
 45
0.0
1001
ACAD
1000
AcDbSavedByObjectVersion
1070
     0
1000
AcDbSavedByObjectVersion
1070
     0
  0
VISUALSTYLE
  5
9D
102
{ACAD_REACTORS
330
99
102
}
330
99
100
AcDbVisualStyle
  2
GouraudWithEdges
 70
     3
 71
     2
 72
     2
 73
     1
 90
        2
 40
-0.6
 41
30.0
 62
     5
 63
     7
 74
     1
 91
        4
 64
     7
 65
   257
 75
     1
175
     1
 42
1.0
 92
        0
 66
   257
 43
1.0
 76
     1
 77
     6
 78
     2
 67
     7
 79
     5
170
     0
171
     0
290
     0
174
     0
 93
        1
 44
0.0
173
     0
291
     1
 45
0.0
1001
ACAD
1000
AcDbSavedByObjectVersion
1070
     0
1000
AcDbSavedByObjectVersion
1070
     0
  0
VISUALSTYLE
  5
A7
102
{ACAD_REACTORS
330
99
102
}
330
99
100
AcDbVisualStyle
  2
Linepattern
 70
    14
 71
     2
 72
     2
 73
     1
 90
        0
 40
-0.6
 41
-30.0
 62
     5
 63
     7
 74
     1
 91
        4
 64
     7
 65
   257
 75
     7
175
     7
 42
1.0
 92
        8
 66
     7
 43
1.0
 76
     1
 77
     6
 78
     2
 67
     7
 79
     5
170
     0
171
     0
290
     0
174
     0
 93
        1
 44
0.0
173
     0
291
     1
 45
0.0
1001
ACAD
1000
AcDbSavedByObjectVersion
1070
     0
1000
AcDbSavedByObjectVersion
1070
     0
  0
VISUALSTYLE
  5
A3
102
{ACAD_REACTORS
330
99
102
}
330
99
100
AcDbVisualStyle
  2
Realistic
 70
     8
 71
     2
 72
     2
 73
     1
 90
        0
 40
-0.6
 41
-30.0
 62
     5
 63
     7
 74
     1
 91
        0
 64
     7
 65
   257
 75
     1
175
     1
 42
1.0
 92
        8
 66
     8
 43
1.0
 76
     1
 77
     6
 78
     2
 67
     7
 79
     5
170
     0
171
     0
290
     0
174
     0
 93
       13
 44
0.0
173
     0
291
     0
 45
0.0
1001
ACAD
1000
AcDbSavedByObjectVersion
1070
     0
1000
AcDbSavedByObjectVersion
1070
     0
  0
VISUALSTYLE
  5
A6
102
{ACAD_REACTORS
330
99
102
}
330
99
100
AcDbVisualStyle
  2
Thicken
 70
    13
 71
     2
 72
     2
 73
     1
 90
        0
 40
-0.6
 41
-30.0
 62
     5
 63
     7
 74
     1
 91
        4
 64
     7
 65
   257
 75
     1
175
     1
 42
1.0
 92
       12
 66
     7
 43
1.0
 76
     1
 77
     6
 78
     2
 67
     7
 79
     5
170
     0
171
     0
290
     0
174
     0
 93
        1
 44
0.0
173
     0
291
     1
 45
0.0
1001
ACAD
1000
AcDbSavedByObjectVersion
1070
     0
1000
AcDbSavedByObjectVersion
1070
     0
  0
VISUALSTYLE
  5
5D6
102
{ACAD_XDICTIONARY
360
5D7
102
}
102
{ACAD_REACTORS
330
99
102
}
330
99
100
AcDbVisualStyle
  2
Wireframe
 70
     5
 71
     0
 72
     2
 73
     0
 90
        0
 40
-0.6
 41
-30.0
 62
     5
 63
     7
 74
     1
 91
        4
 64
     7
 65
   257
 75
     1
175
     1
 42
1.0
 92
        0
 66
   257
 43
1.0
 76
     1
 77
     6
 78
     2
 67
     7
 79
     3
170
     0
171
     0
290
     0
174
     0
 93
        1
 44
0.0
173
     0
291
     0
 45
0.0
1001
ACAD
1000
AcDbSavedByObjectVersion
1070
     0
1000
AcDbSavedByObjectVersion
1070
     0
  0
DICTIONARYVAR
  5
89
102
{ACAD_REACTORS
330
66
102
}
330
66
100
DictionaryVariables
280
     0
  1
STANDARD
  0
DICTIONARYVAR
  5
67
102
{ACAD_REACTORS
330
66
102
}
330
66
100
DictionaryVariables
280
     0
  1
2
  0
DICTIONARYVAR
  5
6B
102
{ACAD_REACTORS
330
66
102
}
330
66
100
DictionaryVariables
280
     0
  1
1
  0
DICTIONARYVAR
  5
59E
102
{ACAD_REACTORS
330
66
102
}
330
66
100
DictionaryVariables
280
     0
  1
0
  0
DICTIONARYVAR
  5
59D
102
{ACAD_REACTORS
330
66
102
}
330
66
100
DictionaryVariables
280
     0
  1
127
  0
XRECORD
  5
6A9
102
{ACAD_REACTORS
330
6A8
102
}
330
6A8
100
AcDbXrecord
280
     1
1070
     0
1070
     1
1070
     1
  0
XRECORD
  5
6AB
102
{ACAD_REACTORS
330
6AA
102
}
330
6AA
100
AcDbXrecord
280
     1
1070
     0
1070
     1
1070
     1
  0
XRECORD
  5
6AD
102
{ACAD_REACTORS
330
6AC
102
}
330
6AC
100
AcDbXrecord
280
     1
1070
     0
1070
     1
1070
     1
  0
XRECORD
  5
6AF
102
{ACAD_REACTORS
330
6AE
102
}
330
6AE
100
AcDbXrecord
280
     1
1070
     0
1070
     1
1070
     1
  0
XRECORD
  5
6B1
102
{ACAD_REACTORS
330
6B0
102
}
330
6B0
100
AcDbXrecord
280
     1
1070
     0
1070
     1
1070
     1
  0
XRECORD
  5
6B3
102
{ACAD_REACTORS
330
6B2
102
}
330
6B2
100
AcDbXrecord
280
     1
1070
     0
1070
     1
1070
     1
  0
XRECORD
  5
6B5
102
{ACAD_REACTORS
330
6B4
102
}
330
6B4
100
AcDbXrecord
280
     1
1070
     0
1070
     1
1070
     1
  0
XRECORD
  5
6B7
102
{ACAD_REACTORS
330
6B6
102
}
330
6B6
100
AcDbXrecord
280
     1
1070
     0
1070
     1
1070
     1
  0
XRECORD
  5
6B9
102
{ACAD_REACTORS
330
6B8
102
}
330
6B8
100
AcDbXrecord
280
     1
1070
     0
1070
     1
1070
     1
  0
XRECORD
  5
6BB
102
{ACAD_REACTORS
330
6BA
102
}
330
6BA
100
AcDbXrecord
280
     1
1070
     0
1070
     1
1070
     1
  0
XRECORD
  5
6BD
102
{ACAD_REACTORS
330
6BC
102
}
330
6BC
100
AcDbXrecord
280
     1
1070
     0
1070
     1
1070
     1
  0
XRECORD
  5
6BF
102
{ACAD_REACTORS
330
6BE
102
}
330
6BE
100
AcDbXrecord
280
     1
1070
     0
1070
     1
1070
     1
  0
XRECORD
  5
6C1
102
{ACAD_REACTORS
330
6C0
102
}
330
6C0
100
AcDbXrecord
280
     1
1070
     0
1070
     1
1070
     1
  0
XRECORD
  5
6C3
102
{ACAD_REACTORS
330
6C2
102
}
330
6C2
100
AcDbXrecord
280
     1
1070
     0
1070
     1
1070
     1
  0
XRECORD
  5
6C5
102
{ACAD_REACTORS
330
6C4
102
}
330
6C4
100
AcDbXrecord
280
     1
1070
     0
1070
     1
1070
     1
  0
DICTIONARY
  5
6A2
330
59
100
AcDbDictionary
280
     1
281
     1
  3
ACAD_XREC_ROUNDTRIP
360
6A3
  0
DICTIONARY
  5
6A4
330
5E
100
AcDbDictionary
280
     1
281
     1
  3
ACAD_XREC_ROUNDTRIP
360
6A5
  0
DICTIONARY
  5
6A0
330
22
100
AcDbDictionary
280
     1
281
     1
  3
ACAD_XREC_ROUNDTRIP
360
6A1
  0
DICTIONARY
  5
66C
330
97
100
AcDbDictionary
280
     1
281
     1
  3
ACAD_XREC_ROUNDTRIP
360
66D
  0
DICTIONARY
  5
66A
330
96
100
AcDbDictionary
280
     1
281
     1
  3
ACAD_XREC_ROUNDTRIP
360
66B
  0
DICTIONARY
  5
66E
330
98
100
AcDbDictionary
280
     1
281
     1
  3
ACAD_XREC_ROUNDTRIP
360
66F
  0
DICTIONARY
  5
6A6
330
87
100
AcDbDictionary
280
     1
281
     1
  3
ACAD_XREC_ROUNDTRIP
360
6A7
  0
DICTIONARY
  5
5D7
330
5D6
100
AcDbDictionary
280
     1
281
     1
  3
ACAD_XREC_ROUNDTRIP
360
5D8
  0
XRECORD
  5
6A3
102
{ACAD_REACTORS
330
6A2
102
}
330
6A2
100
AcDbXrecord
280
     1
102
SHADEPLOT
 70
     0
102
SHADEPLOTRESLEVEL
 70
     2
102
SHADEPLOTCUSTOMDPI
 70
   300
  0
XRECORD
  5
6A5
102
{ACAD_REACTORS
330
6A4
102
}
330
6A4
100
AcDbXrecord
280
     1
102
SHADEPLOT
 70
     0
102
SHADEPLOTRESLEVEL
 70
     2
102
SHADEPLOTCUSTOMDPI
 70
   300
  0
XRECORD
  5
6A1
102
{ACAD_REACTORS
330
6A0
102
}
330
6A0
100
AcDbXrecord
280
     1
102
SHADEPLOT
 70
     0
102
SHADEPLOTRESLEVEL
 70
     2
102
SHADEPLOTCUSTOMDPI
 70
   300
  0
XRECORD
  5
66D
102
{ACAD_REACTORS
330
66C
102
}
330
66C
100
AcDbXrecord
280
     1
102
MATERIAL
148
0.0
149
0.0
149
0.0
 93
        0
 94
       63
282
     0
 72
     1
 77
     1
171
     1
175
     1
179
     1
273
     0
  0
XRECORD
  5
66B
102
{ACAD_REACTORS
330
66A
102
}
330
66A
100
AcDbXrecord
280
     1
102
MATERIAL
148
0.0
149
0.0
149
0.0
 93
        0
 94
       63
282
     0
 72
     1
 77
     1
171
     1
175
     1
179
     1
273
     0
  0
XRECORD
  5
66F
102
{ACAD_REACTORS
330
66E
102
}
330
66E
100
AcDbXrecord
280
     1
102
MATERIAL
148
0.0
149
0.0
149
0.0
 93
        0
 94
       63
282
     0
 72
     1
 77
     1
171
     1
175
     1
179
     1
273
     0
  0
XRECORD
  5
6A7
102
{ACAD_REACTORS
330
6A6
102
}
330
6A6
100
AcDbXrecord
280
     1
102
ACAD_ROUNDTRIP_PRE2007_TABLESTYLE
 90
      512
 91
        0
  1

 92
      512
 93
        0
  2

 94
      512
 95
        0
  3

  0
XRECORD
  5
5D8
102
{ACAD_REACTORS
330
5D7
102
}
330
5D7
100
AcDbXrecord
280
     1
102
RTVSPost2010Prop28
280
     0
102
RTVSPost2010PropOp28
 70
     1
102
RTVSPost2010Prop29
280
     1
102
RTVSPost2010PropOp29
 70
     1
102
RTVSPost2010Prop30
280
     1
102
RTVSPost2010PropOp30
 70
     1
102
RTVSPost2010Prop31
280
     0
102
RTVSPost2010PropOp31
 70
     1
102
RTVSPost2010Prop32
280
     0
102
RTVSPost2010PropOp32
 70
     1
102
RTVSPost2010Prop33
280
     0
102
RTVSPost2010PropOp33
 70
     1
102
RTVSPost2010Prop34
280
     0
102
RTVSPost2010PropOp34
 70
     1
102
RTVSPost2010Prop35
280
     0
102
RTVSPost2010PropOp35
 70
     1
102
RTVSPost2010Prop36
280
     0
102
RTVSPost2010PropOp36
 70
     1
102
RTVSPost2010Prop37
 90
       50
102
RTVSPost2010PropOp37
 70
     1
102
RTVSPost2010Prop38
140
0.0
102
RTVSPost2010PropOp38
 70
     1
102
RTVSPost2010Prop39
140
1.0
102
RTVSPost2010PropOp39
 70
     1
102
RTVSPost2010Prop40
 90
        0
102
RTVSPost2010PropOp40
 70
     1
102
RTVSPost2010Prop41ColorIndex
 90
       18
102
RTVSPost2010Prop41ColorRGB
 90
        0
102
RTVSPost2010PropOp41
 70
     1
102
RTVSPost2010Prop42
 90
       50
102
RTVSPost2010PropOp42
 70
     1
102
RTVSPost2010Prop43
 90
        3
102
RTVSPost2010PropOp43
 70
     1
102
RTVSPost2010Prop44ColorIndex
 90
        5
102
RTVSPost2010Prop44ColorRGB
 90
      255
102
RTVSPost2010PropOp44
 70
     1
102
RTVSPost2010Prop45
280
     0
102
RTVSPost2010PropOp45
 70
     1
102
RTVSPost2010Prop46
 90
       50
102
RTVSPost2010PropOp46
 70
     1
102
RTVSPost2010Prop47
 90
       50
102
RTVSPost2010PropOp47
 70
     1
102
RTVSPost2010Prop48
 90
       50
102
RTVSPost2010PropOp48
 70
     1
102
RTVSPost2010Prop49
280
     0
102
RTVSPost2010PropOp49
 70
     1
102
RTVSPost2010Prop50
 90
       50
102
RTVSPost2010PropOp50
 70
     1
102
RTVSPost2010Prop51ColorIndex
 90
      256
102
RTVSPost2010Prop51ColorRGB
 90
-16777216
102
RTVSPost2010PropOp51
 70
     0
102
RTVSPost2010Prop52
140
1.0
102
RTVSPost2010PropOp52
 70
     0
102
RTVSPost2010Prop53
 90
        2
102
RTVSPost2010PropOp53
 70
     1
102
RTVSPost2010Prop54
  1
strokes_ogs.tif
102
RTVSPost2010PropOp54
 70
     1
102
RTVSPost2010Prop55
280
     0
102
RTVSPost2010PropOp55
 70
     1
102
RTVSPost2010Prop56
140
1.0
102
RTVSPost2010PropOp56
 70
     1
102
RTVSPost2010Prop57
140
1.0
102
RTVSPost2010PropOp57
 70
     1
102
RTVSPropertyOp0
 70
     1
102
RTVSPropertyOp1
 70
     1
102
RTVSPropertyOp2
 70
     1
102
RTVSPropertyOp3
 70
     1
102
RTVSPropertyOp4
 70
     1
102
RTVSPropertyOp5
 70
     1
102
RTVSPropertyOp6
 70
     1
102
RTVSPropertyOp7
 70
     1
102
RTVSPropertyOp8
 70
     1
102
RTVSPropertyOp9
 70
     1
102
RTVSPropertyOp10
 70
     1
102
RTVSPropertyOp11
 70
     1
102
RTVSPropertyOp12
 70
     1
102
RTVSPropertyOp13
 70
     1
102
RTVSPropertyOp14
 70
     1
102
RTVSPropertyOp15
 70
     1
102
RTVSPropertyOp16
 70
     1
102
RTVSPropertyOp17
 70
     1
102
RTVSPropertyOp18
 70
     1
102
RTVSPropertyOp19
 70
     1
102
RTVSPropertyOp20
 70
     1
102
RTVSPropertyOp21
 70
     1
102
RTVSPropertyOp22
 70
     1
102
RTVSPropertyOp23
 70
     1
102
RTVSPropertyOp24
 70
     1
102
RTVSPropertyOp25
 70
     1
102
RTVSPropertyOp26
 70
     1
102
RTVSPropertyOp27
 70
     1
102
RTVSPropertyOp28
 70
     1
102
RTVSPropertyOp29
 70
     1
102
RTVSPropertyOp30
 70
     1
102
RTVSPropertyOp31
 70
     1
102
RTVSPropertyOp32
 70
     1
102
RTVSPropertyOp33
 70
     1
102
RTVSPropertyOp34
 70
     1
102
RTVSPropertyOp35
 70
     1
102
RTVSPropertyOp36
 70
     1
102
RTVSPropertyOp37
 70
     1
102
RTVSPropertyOp38
 70
     1
102
RTVSPropertyOp39
 70
     1
102
RTVSPropertyOp40
 70
     1
102
RTVSPropertyOp41
 70
     1
102
RTVSPropertyOp42
 70
     1
102
RTVSPropertyOp43
 70
     1
102
RTVSPropertyOp44
 70
     1
102
RTVSPropertyOp45
 70
     1
102
RTVSPropertyOp46
 70
     1
102
RTVSPropertyOp47
 70
     1
102
RTVSPropertyOp48
 70
     1
102
RTVSPropertyOp49
 70
     1
102
RTVSPropertyOp50
 70
     1
102
RTVSPropertyOp51
 70
     0
102
RTVSPropertyOp52
 70
     0
102
RTVSPropertyOp53
 70
     1
102
RTVSPropertyOp54
 70
     1
102
RTVSPropertyOp55
 70
     1
102
RTVSPropertyOp56
 70
     1
102
RTVSPropertyOp57
 70
     1
102
RTVSPropertyOp58
 70
     1
102
RTVSPropertyOp59
 70
     1
102
RTVSPropertyOp60
 70
     1
102
RTVSPropertyOp61
 70
     1
102
RTVSPropertyOp62
 70
     1
  0
ENDSEC
  0
EOF
